Log in

One click and you are in

Login with Facebook Login with Google

Why sign up and log in

Guitar Tabs Explorer
Weezer guitar tabs for California kids

Intro with lyrics

--------------------------------------------------------------------------------------------
                                  CALIFORNIA KIDS ? Weezer
--------------------------------------------------------------------------------------------
Tabbed by: Pat Malavi
No capo
Standard tuning


[Intro]

e|------------------------------------------------------------------------------------------|
B|---------------3--4-----------------3--4-----------------3--4-----------------3--4--------|
G|-------------3--------------------3--------------------3--------------------3-------------|
D|----1--3-/5---------5--3-1--3-/5---------5----1--3-/5---------5--3-1--3-/5---------5------|
A|------------------------------------------------------------------------------------------|
E|------------------------------------------------------------------------------------------|


[Verse 1]

        A chord diagramD#D#   A#/D   A chord diagramC minorCm    A chord diagramA#A#    A chord diagramG#G#    A chord diagramA#A#    A chord diagramD#D#                     Riff 1
e|------------------------------------------------|-----------------------------------------|
B|------------------------------------------------|-----------------------------------------|
G|------8-----7-----------------------------8-----|--------7--7-/8--8-----------------------|
D|------8-----8-----10----8-----6-----8-----8-----|--------------------10-10-\8--8----------|
A|------6-----5-----10----8-----6-----8-----6-----|--------5--5-/6--6-----------------------|
E|------------------8-----6-----4-----6-----------|--------------------8--8--\6--6----------|

         A chord diagramD#D#       A#/D            A chord diagramC minorCm       A chord diagramA#A#             A chord diagramG#G#    A chord diagramA#A#           A chord diagramD#D#       Riff 1
When you wake up, cobwebs on your eyelids, stuck in rigor mortis, whoa-oh-oh oh-oh-oh

          A chord diagramD#D#     A#/D             A chord diagramC minorCm         A chord diagramA#A#           A chord diagramG#G#     A chord diagramA#A#           A chord diagramD#D#       Riff 1
Just keep going, till you hit the ocean, and you turn Californian, whoa-oh-oh oh-oh-oh

     A chord diagramD#D#                       A chord diagramD#D#                       A chord diagramG#G#                      A chord diagramA#A#
e|-------------8------------------------8----------------4---4-------4-3h4p3-----6---6------|
B|-----11---11-------8h9p8------11---11-------8h9p8--------------6----------4------------6--|
G|---8----8------8-8-------8--8----8------8-8-------8--5---5---5---5-----------7---7---7----|
D|------------------------------------------------------------------------------------------|
A|------------------------------------------------------------------------------------------|
E|------------------------------------------------------------------------------------------|

          A chord diagramD#D#                A chord diagramD#D#                 A chord diagramG#G#               A chord diagramA#A#
You don't have to, have the answers, don't you worry, don't you worry


[Chorus 1]
                   Bars 1 and 3                                    Bar 2
       A chord diagramG#G#      A chord diagramA#A#      A chord diagramC minorCm      A chord diagramG MajorG        A chord diagramG MajorG            A chord diagramG#G#      A chord diagramA#A#      A chord diagramG#G#      A chord diagramG#G#    A chord diagramA#A#
e|---------------------------------------------|--------------------------------------------|
B|---------------------------------------------|--------------------------------------------|
G|---------------------5--5--------------------|--------------------------------------------|
D|-----6--6----8--8----5--5----5--5--x--5------|----/6--6----8--8----6--6----6--6--8--8-----|
A|-----6--6----8--8----3--3----5--5--x--5------|----/6--6----8--8----6--6----6--6--8--8-----|
E|-----4--4----6--6------------3--3--x--3------|----/4--4----6--6----4--4----4--4--6--6-----|

                     Bar 4                                         Riff 2
              A chord diagramG#G#      A chord diagramA#A#      A chord diagramG#G#
e|---------------------------------------------|--------------------------------------------|
B|---------------------------------------------|--------------9-8---------------------------|
G|---------------------------------------------|------------------10-8-10-8-----------------|
D|------------6--6----8--8----6--6-------------|----------------------------10-8------------|
A|------------6--6----8--8----6--6-------------|--------------------------------------------|
E|------------4--4----6--6----4--4-------------|--------------------------------------------|

              A chord diagramG#G#     A chord diagramA#A#              A chord diagramC minorCm           A chord diagramG MajorG A chord diagramG MajorG
It's gonna be alright, if you're the sinking ship

    A chord diagramG#G#           A chord diagramA#A#               A chord diagramG#G#       A chord diagramG#G# A chord diagramA#A#
California kids, will throw you a lifeline

                 A chord diagramG#G#         A chord diagramA#A#                 A chord diagramC minorCm            A chord diagramG MajorG A chord diagramG MajorG
And if you're up all night, thinking 'bout something you did

    A chord diagramG#G#         A chord diagramA#A#                  A chord diagramG#G#       Riff 2
California kids, will show you the sunshine


[Verse 2]

        A chord diagramD#D#   A#/D   A chord diagramC minorCm    A chord diagramA#A#    A chord diagramG#G#    A chord diagramA#A#    A chord diagramD#D#                      Riff 3
e|------------------------------------------------|-----------------------------------------|
B|------------------------------------------------|-----------------------------------------|
G|------8-----7-----------------------------8-----|---------3--3-/5--5----------------------|
D|------8-----8-----10----8-----6-----8-----8-----|---------------------5--5-\3--3----------|
A|------6-----5-----10----8-----6-----8-----6-----|---------1--1-/3--3----------------------|
E|------------------8-----6-----4-----6-----------|---------------------3--3-\1--1----------|

        A chord diagramD#D#         A#/D       A chord diagramC minorCm   A chord diagramA#A#              A chord diagramG#G#     A chord diagramA#A#           A chord diagramD#D#       Riff 3
In your bare feet, in mid-January, swimming in the mystery, whoa-oh-oh oh-oh-oh


     A chord diagramD#D#                       A chord diagramD#D#                       A chord diagramG#G#                      A chord diagramA#A#
e|-------------8------------------------8----------------4---4-------4-3h4p3-----6---6------|
B|-----11---11-------8h9p8------11---11-------8h9p8--------------6----------4------------6--|
G|---8----8------8-8-------8--8----8------8-8-------8--5---5---5---5-----------7---7---7----|
D|------------------------------------------------------------------------------------------|
A|------------------------------------------------------------------------------------------|
E|------------------------------------------------------------------------------------------|

       A chord diagramD#D#               A chord diagramD#D#                    A chord diagramG#G#               A chord diagramA#A#
Second guessing, almost everything, don't you worry, don't you worry


[Chorus 2]
                   Bars 1 and 3                                    Bar 2
       A chord diagramG#G#      A chord diagramA#A#      A chord diagramC minorCm      A chord diagramG MajorG        A chord diagramG MajorG            A chord diagramG#G#      A chord diagramA#A#      A chord diagramG#G#      A chord diagramG#G#    A chord diagramA#A#
e|---------------------------------------------|--------------------------------------------|
B|---------------------------------------------|--------------------------------------------|
G|---------------------5--5--------------------|--------------------------------------------|
D|-----6--6----8--8----5--5----5--5--x--5------|----/6--6----8--8----6--6----6--6--8--8-----|
A|-----6--6----8--8----3--3----5--5--x--5------|----/6--6----8--8----6--6----6--6--8--8-----|
E|-----4--4----6--6------------3--3--x--3------|----/4--4----6--6----4--4----4--4--6--6-----|

                     Bar 4                                         Riff 4
              A chord diagramG#G#      A chord diagramA#A#      A chord diagramG#G#
e|---------------------------------------------|--------------------------------------------|
B|---------------------------------------------|--------------9-8---------------------------|
G|---------------------------------------------|------------------10-8-10-8-----------------|
D|------------6--6----8--8----6--6-------------|----------------------------10--------------|
A|------------6--6----8--8----6--6-------------|--------------------------------------------|
E|------------4--4----6--6----4--4-------------|--------------------------------------------|

              A chord diagramG#G#     A chord diagramA#A#              A chord diagramC minorCm           A chord diagramG MajorG A chord diagramG MajorG
It's gonna be alright, if you're the sinking ship
    A chord diagramG#G#           A chord diagramA#A#               A chord diagramG#G#       A chord diagramG#G# A chord diagramA#A#
California kids, will throw you a lifeline
                 A chord diagramG#G#         A chord diagramA#A#                 A chord diagramC minorCm            A chord diagramG MajorG A chord diagramG MajorG
And if you're up all night, thinking 'bout something you did
    A chord diagramG#G#         A chord diagramA#A#                  A chord diagramG#G#      Riff 4
California kids, will show you the skyline


[Solo]

e|--------------------------------------/11-11-10-8----8---------/11-11-10-8----8-----------|
B|--------------------8------8-11---8-11------------11---8-11--11------------11---9-8-------|
G|--8---7-8-10---8-10-----10----------------------------------------------------------10-8--|
D|------------------------------------------------------------------------------------------|
A|------------------------------------------------------------------------------------------|
E|------------------------------------------------------------------------------------------|


[Verse 3]

        A chord diagramD#D#   A#/D   A chord diagramC minorCm    A chord diagramA#A#    A chord diagramG#G#    A chord diagramA#A#    A chord diagramD#D#
e|------------------------------------------------------------------------------------------|
B|------------------------------------------------------------------------------------------|
G|------8-----7-----------------------------8-----------------------------------------------|
D|------8-----8-----10----8-----6-----8-----8-----------------------------------------------|
A|------6-----5-----10----8-----6-----8-----6-----------------------------------------------|
E|------------------8-----6-----4-----6-----------------------------------------------------|

         A chord diagramD#D#           A#/D             A chord diagramC minorCm      A chord diagramA#A#           A chord diagramG#G#      A chord diagramA#A#           A chord diagramD#D#
All your old friends, chilling back in Boston, you never forgot them, whoa-oh-oh oh-oh-oh


[Chorus 3]
                   Bars 1 and 3                                    Bar 2
       A chord diagramG#G#      A chord diagramA#A#      A chord diagramC minorCm      A chord diagramG MajorG        A chord diagramG MajorG            A chord diagramG#G#      A chord diagramA#A#      A chord diagramG#G#      A chord diagramG#G#    A chord diagramA#A#
e|---------------------------------------------|--------------------------------------------|
B|---------------------------------------------|--------------------------------------------|
G|---------------------5--5--------------------|--------------------------------------------|
D|-----6--6----8--8----5--5----5--5--x--5------|----/6--6----8--8----6--6----6--6--8--8-----|
A|-----6--6----8--8----3--3----5--5--x--5------|----/6--6----8--8----6--6----6--6--8--8-----|
E|-----4--4----6--6------------3--3--x--3------|----/4--4----6--6----4--4----4--4--6--6-----|

                     Bar 4                                         Bar 5
              A chord diagramG#G#      A chord diagramA#A#      A chord diagramG#G#                     A chord diagramG#G#      A chord diagramA#A#      A chord diagramG#G#      A chord diagramG#G#    A chord diagramA#A#
e|---------------------------------------------|--------------------------------------------|
B|---------------------------------------------|--------------------------------------------|
G|---------------------------------------------|--------------------------------------------|
D|-----------/6--6----8--8----6--6-------------|----/6--6----8--8----6--6----6--6--8--8-----|
A|-----------/6--6----8--8----6--6-------------|----/6--6----8--8----6--6----6--6--8--8-----|
E|-----------/4--4----6--6----4--4-------------|----/4--4----6--6----4--4----4--4--6--6-----|

              A chord diagramG#G#     A chord diagramA#A#              A chord diagramC minorCm           A chord diagramG MajorG A chord diagramG MajorG
It's gonna be alright, if you're the sinking ship
    A chord diagramG#G#           A chord diagramA#A#               A chord diagramG#G#       A chord diagramG#G# A chord diagramA#A#
California kids, will throw you a lifeline
                 A chord diagramG#G#         A chord diagramA#A#                 A chord diagramC minorCm            A chord diagramG MajorG A chord diagramG MajorG
And if you're up all night, thinking 'bout something you did
    A chord diagramG#G#         A chord diagramA#A#                  A chord diagramG#G#
California kids, will show you the sunshine
    A chord diagramG#G#         A chord diagramA#A#                  A chord diagramG#G#      A chord diagramG#G# A chord diagramA#A#
California kids, will show you the skyline

Other versions of California Kids

California kidsChords

↓ Add and view comments below ↓

What do you think about this song and these tabs?

Add your comments, questions, rant or a thumbs up below.

Almost there ...

Sign in to get your own page with links to favourite songs and more. You are just one click away...

Login with Facebook Login with Google