Log in

One click and you are in

Login with Facebook Login with Google

Why sign up and log in

Guitar Tabs Explorer
Weezer bass tabs for Buddy holly

Bass tabs

Weezer "Buddy Holly"
Drop D 1/2 tuning Db Ab Db Gb


Verse

|--------------------------|-------------------------|----------------------|
|--------------------------|-------------------------|----------------------|
|-----------4-----------4--|----------4--------------|---------7---------7--|
|--4--4--4-----4--4--4-----|-4--4--4-----4--4--6--6--|-7--7--7---7--7--7----|
|-------------------------|-------------------------|-----------------------|
|-------------------------|-------------------------|-----------------------|
|----------7--------------|----------4--------------|----------7----------7-|
|-7--7--7-----7--7--7--7--|-4--4--4-----4--4--6--6--|-7--7--7-----7--7--7---|


|-------------------------|
|-------------------------|
|-------------------4--4--|
|-7--7--7--7--9--9--------|


Pre-chorus

|-------------------------|-------------------------|-----------------------|
|-------------------------|-------------------------|-----------------------|
|-5--5--5--5--5--5--5--5--|-4--4--4-----------------|-5--5--5--5--5--5--5--5|
|-------------------------|----------4--4--4--4--4--|-----------------------|


|-------------------------|------------------------|------------------------
|-------------------------|------------------------|------------------------
|-4--4--4-----------------|-5--5--5--5--5--5--5--5/|12--12--12--12--12--12--
|----------4--4--4--4--4--|------------------------|------------------------

---------|
---------|
-12--12--|
---------|


Chorus

|------------------------|------------------------|-------------------------|
|------------------------|------------------------|-------------------------|
|------------------------|------------------------|-------------------------|
|-7--7--7--7--7--7--7--7-|-2--4--4--4--2--2--2--2-|-7--7--7--7--7--7--7--7--|


|-------------------------|------------------------|------------------------|
|-------------------------|------------------------|------------------------|
|-------------------------|------------------------|------------------------|
|-2--4--4--4--2--2--2--2--|-4--4--4--4--4--4--4--4-|-0--0--2--2--7--7--7--7-|


|------------------------|-------------------------------|
|------------------------|-------------------------------|
|------------------------|-------------------------------|
|-7--7--0--0--2--2--2--2-|-/7--7--7--2--2/7--7--7--7--7--|


Interlude

|-------------------------|------------------------|------------------------|
|-------------------------|-4--4--4-----4----------|------------------------|
|----------4-----------4--|----------4-------------|----------7-----------7-|
|-4--4--4-----4--4--4-----|----------------4--6--6-|-7--7--7-----7--7--7----|


|----------------------------|
|----------------------------|
|----------7-----7--7--------|
|-7--7--7-----7--------7--7--|


Bridge

|---------------------|---------------------|------------------------------|
|---------------------|---------------------|------------------------------|
|---------------------|----0--2--4--2--0----|------------------------------|
|-7--7--7--2--4--2--4-|-4-----------------4-|-7--7--7--7--2--4--2--4-------|


|---------------------|------------------------|---------------------------|
|---------------------|------------------------|---------------------------|
|----0--2--4--2--0----|------------------------|----0--2--4--2--0----------|
|-4-----------------4-|-7--7--7--7--2--4--2--4-|-4-----------------4-------|


|---------------------------|---------------------|
|---------------------------|---------------------|
|---------------------------|----0--2--4--2--0----|
|-7--7--7--7--7--2--4--2--4-|-4-----------------4-|


Guitar solo


|------------------------|------------------------|-------------------------|
|------------------------|------------------------|-------------------------|
|-5--5--5--5--5--5--5--5-|-5--5--5----------------|-5--5--5--5--5--5--5--5--|
|------------------------|----------4--4--4--4--4-|-------------------------|


|------------------------|------------------------|-------------------------|
|------------------------|------------------------|-------------------------|
|-4--4--4----------------|-5--5--5--5--5--5--5--5-|-5--5--5--5--5--5--5--5--|
|----------4--4--4--4--4-|------------------------|-------------------------|


Out-chorus

|------------------------|---------------------------|----------------------|
|------------------------|---------------------------|----------------------|
|------------------------|---------------------------|----------------------|
|-7--7--7--7--7--7--7--7-|-2--4--4--4--4--2--2--2--2-|-7--7--7--7--7--7--7-7|


|-----------------------------|------------------------|-------------------|
|-----------------------------|------------------------|-------------------|
|-----------------------------|------------------------|-------------------|
|-2-4--4--4--4--4--2--2--2--2-|-4--4--4--4--4--4--4--4-|-0-0-2-2-7-7-7-7---|

play 3x
||--------------------------|-----------------------------||
||o-------------------------|----------------------------o||
||o-------------------------|----------------------------o||
||---7--7--0--0--2--2--2--2-|/7--7--7--2--2/7-7--7--7--7--||


|------------------------|---------------------|
|------------------------|---------------------|
|------------------------|---------------------|
|-7--7--0--0--2--2--2--2-|/7--7--7--2--4--2--4-|

↓ Add and view comments below ↓

What do you think about this song and these tabs?

Add your comments, questions, rant or a thumbs up below.

Almost there ...

Sign in to get your own page with links to favourite songs and more. You are just one click away...

Login with Facebook Login with Google