Log in

One click and you are in

Login with Facebook Login with Google

Why sign up and log in

Guitar Tabs Explorer
Weezer guitar tabs for Brightening day

Guitar tabs

"Brightening Day" by Weezer
Tabbed by CopperForever@aol.com


Verse:
________C_________________F
My best friends are...
_________A______________________________G
And they left me here...
________F
How can I... ________F#__________________G______________________C
With no one to try...
Chorus:
E____F#
Whoa whoa
E____F#
Whoa whoa
A_______________________G
There was a brightening day


Solo:
----------------------------------
-12b-12-10-------12b-12b-12-12-10-
-----------10-10------------------
----------------------------------
----------------------------------
----------------------------------

__________/      Bend these notes as you play them      \
----------12-12-12-12-12-12-12-12-15-15-15-15-17-17-17-17-
-15-13-15-------------------------------------------------
----------------------------------------------------------
----------------------------------------------------------
----------------------------------------------------------
----------------------------------------------------------


------------------------------------------------|--------|
------------------------------------------------|--------|
-14-12-12-9-9-9-5-5-5-5-3-5-5-5-3-5-7b-7b-7p5/3-|-5-3-55-|
------------------------------------------------|--------|
------------------------------------------------|--------|
------------------------------------------------|--------|

Other versions of Brightening Day

Brightening dayChords

↓ Add and view comments below ↓

What do you think about this song and these tabs?

Add your comments, questions, rant or a thumbs up below.

Almost there ...

Sign in to get your own page with links to favourite songs and more. You are just one click away...

Login with Facebook Login with Google