Log in

One click and you are in

Login with Facebook Login with Google

Why sign up and log in

Guitar Tabs Explorer
Weezer bass tabs for Blast off

Bass tabs

Tuning: Half-Step Down (D# G# C# F#)

Key: Eb

Difficulty: Novice

Album: Songs from the Black Hole
Intro:(0:00)
F#|---------------------------------|
C#|---------------------------------|
G#|---------------------------------|
D#|-----------------4---4---4-4-4-4-|


Verse:(0:02)
F#|---------------------------------|---------------------------------|---------------------------------|
C#|---------------------------------|---------------------------------|---------------------------------|
G#|---------------------------------|-----------------2---2-----------|---------------------------------|
D#|-0---0-----------5---5-----------|-2---2---------------------------|-0---0-----------5---5-----------|


F#|---------------------------------|---------------------------------|---------------------------------|
C#|---------------------------------|---------------------------------|---------------------------------|
G#|-----------------2---2-----------|---------------------------------|-----------------2---2-----------|
D#|-2---2---------------------------|-0---0-----------5---5-----------|-2---2---------------------------|


F#|---------------------------------|---------------------------------|
C#|---------------------------------|---------------------------------|
G#|-4---4---------------------------|-6-------------------------------|
D#|-----------------2---2-----------|-----------------4---4---4-4-4-4-|

F#|---------------------------------|---------------------------------|---------------------------------|
C#|---------------------------------|---------------------------------|---------------------------------|
G#|---------------------------------|-----------------2---2-----------|---------------------------------|
D#|-0---0-----------5---5-----------|-2---2---------------------------|-0---0-----------5---5-------4---|


F#|---------------------------------|---------------------------------|---------------------------------|
C#|---------------------------------|---------------------------------|---------------------------------|
G#|-----------------2---2-----------|---------------------------------|-----------------2---2-----------|
D#|-2---2---------------------------|-0---0-----------5---5-----------|-2---2---------------------------|


F#|---------------------------------|-----------------|
C#|---------------------------------|-----------------|
G#|-4---4---------------------------|-----------------|
D#|-----------------2---2-----------|-4---4---4-4-4---|


Chorus:(0:47)
F#|---------7-----------------------|---------------------------------|---------------------------------|
C#|---------------------------------|---------------------------------|---------------------------------|
G#|-5---5-----------5---5-----------|-----------------2---------------|---------------------------------|
D#|-------------------------2-------|-3---3---------------------------|-0---0-----------3---------------|


F#|---------------------------------|
C#|---------------------------------|
G#|---------------------------------|
D#|-5---5-----------5---5---7-------|



Verse:(0:58)
F#|---------------------------------|---------------------------------|---------------------------------|
C#|---------------------------------|---------------------------------|---------------------------------|
G#|---------------------------------|-----------------2---2-----------|---------------------------------|
D#|-0---0-----------5---5-----------|-2---2---------------------------|-0---0-----------5---5-------4---|


F#|---------------------------------|---------------------------------|---------------------------------|
C#|---------------------------------|---------------------------------|---------------------------------|
G#|-----------------2---2-----------|---------------------------------|-----------------2---2-----------|
D#|-2---2---------------------------|-0---0-----------5---5-------4---|-2---2---------------------------|


F#|---------------------------------|---------------------------------|
C#|---------------------------------|---------------------------------|
G#|-4---4---------------------------|-6-------------------------------|
D#|-----------------2---2-----------|-----------------4---4---4-4-4-4-|


Chorus:(1:22)
F#|---------7-----------------------|---------------------------------|---------------------------------|
C#|---------------------------------|---------------------------------|---------------------------------|
G#|-5---5-----------5---5-----------|-----------------2---------------|---------------------------------|
D#|-------------------------2-------|-3---3---------------------------|-0---0-----------0---0-----------|


F#|---------------------------------|
C#|---------------------------------|
G#|---------------------------------|
D#|-5---5-----------5---5---7-------|


Outro:(1:34)
F#|---------------------------------|---------------------------------|---------------------------------|
C#|---------------------------------|---------------------------------|---------------------------------|
G#|---------------------------------|-------------------------5\------|---------------------------------|
D#|-3---------------------------0---|-5h7p5---------------------------|-3---3-----------------------0---|


F#|---------------------------------|---------------------------------|---------------------------------|
C#|---------------------------------|---------------------------------|---------------------------------|
G#|-------------------------5\------|---------------------------------|-------------------------7\------|
D#|-5h7p5---------------------------|-3---3-----------------------0---|-5h7p5---------------------------|


F#|---------------------------------|---------------------------------|
C#|---------------------------------|---------------------------------|
G#|---------------------------------|---------------------------------|
D#|-0---0-----------------------0---|-3-------------------------------|


************************************

| \  Slide down
| h  Hammer-on
| p  Pull-off

************************************

↓ Add and view comments below ↓

What do you think about this song and these tabs?

Add your comments, questions, rant or a thumbs up below.

Almost there ...

Sign in to get your own page with links to favourite songs and more. You are just one click away...

Login with Facebook Login with Google