Log in

One click and you are in

Login with Facebook Login with Google

Why sign up and log in

Guitar Tabs Explorer
Weezer bass tabs for Beach boys

Bass tabs

Verse 1:
G|------------------------------------------------------|
D|5---5-5---7-7---7-7-------------------------7--7------|
A|---5-5---------7-7----5---5-5---8-8--8-8-10------10-8-| X5
E|-------------------------5-5--------------------------|
Chorus 1: (Similar to verse but hold notes)
G|------------------------------------------------------|
D|5----5-5---7----7-7-------------------------7--7------|
A|----5-5--------7-7----5---5-5---8-8--8-8-10------10-8-| X2
E|-------------------------5-5--------------------------|


Verse 2:
G|------------------------------------------------------|
D|5---5-5---7-7---7-7-------------------------7--7------|
A|---5-5---------7-7----5---5-5---8-8--8-8-10------10-8-| X4
E|-------------------------5-5--------------------------|


Chorus 2: (Similar to verse but hold notes)
G|------------------------------------------------------|
D|5----5-5---7----7-7-------------------------7--7------|
A|----5-5--------7-7----5----5-5---8-8--8-8-10------10-8| X2
E|--------------------------5-5-------------------------|

G|-----------------------------------------------------------------------|
D|-----------------------------------------------------------------------|
A|--------------------------------5-5-5-5-5-5-5-5-8-8-8-8-8-8-8-8-8-8----|
E|3-3-3-3-3-3-3-3-5-5-5-5-5-5-5-5----------------------------------------|

G|------------------------------------------------------|
D|5----5-5---7----7-7-----------------------------------|
A|----5-5--------7-7----5---5-5---8-8-8-8-8-8-8-8-------|
E|-------------------------5-5--------------------------|


Bridge:
G|------------------------------------------|
D|------------------------------------------|
A|-----5--3-------5--3-------5--3-------5--3|
E|6----------6----------6----------6--------|

G|----------------|
D|----------------|
A|----------------|
E|1/6--6/12--12/17|


Chorus 3/Outro: (Similar to verse but hold notes more)
G|------------------------------------------------------|
D|5----5-5---7----7-7-------------------------7--7------|
A|----5-5--------7-7----5----5-5---8-8--8-8-10------10-8| X4
E|--------------------------5-5-------------------------|


************************************

| /  Slide up

↓ Add and view comments below ↓

What do you think about this song and these tabs?

Add your comments, questions, rant or a thumbs up below.

Almost there ...

Sign in to get your own page with links to favourite songs and more. You are just one click away...

Login with Facebook Login with Google