Log in

One click and you are in

Login with Facebook Login with Google

Why sign up and log in

Guitar Tabs Explorer
Weezer guitar tabs for Back to the shack

Guitar tabs

Title: Back To The Shack

h hammer on
p pull off
\ slide down

Standard Tuning (E A D G B E)
----|------------------------------------|--|---------------------------------|
----|------------------------------------|--|---------------------------------|
----|-------1h3p1--3--1--------1h3p1--1--|--|---------------------------------|
----|------------------------------------|--|---------------------------------|
----|-4--6-\-------------4--6-\----------|--|---------------------------------|
----|-2--4-\-------------2--4-\----------|--|---------------------------------|


  Intro G1


----|------------------------------------|--|---------------------------------|
----|--------------------7--9\-----------|--|---------------------------------|
----|------------------------------------|--|---------------------------------|
----|--------------------4--6\-----------|--|---------------------------------|
----|------------------------------------|--|---------------------------------|
----|------------------------------------|--|---------------------------------|


  Intro G2

----|---------|--|------------------------------------------------------------|
----|---------|--|------------------------------------------------------------|
----|---------|--|------------------------------------------------------------|
----|---------|--|------------------------------------------------------------|
----|-4---6-\-|--|------------------------------------------------------------|
----|-2---4-\-|--|------------------------------------------------------------|


  Verse

----|---------|--|------------------------------------------------------------|
----|---------|--|------------------------------------------------------------|
----|---------|--|------------------------------------------------------------|
----|---------|--|------------------------------------------------------------|
----|-6---4---|--|------------------------------------------------------------|
----|-4---2---|--|------------------------------------------------------------|


  Chorus

----|-----------------------|--|----------------------|-----------------------|
----|-----------------------|--|----------------------|-----------------------|
----|-------3h5p3-1---1-----|--|----------------------|-----------------------|
----|---------------4----4--|2x|----------------------|-----------------------|
----|-6-\-------------------|--|-4--6--3--8--1--------|-----------------------|
----|-4-\-------------------|--|----------------------|-----------------------|

Other versions of Back To The Shack

Back to the shackChords

↓ Add and view comments below ↓

What do you think about this song and these tabs?

Add your comments, questions, rant or a thumbs up below.

Almost there ...

Sign in to get your own page with links to favourite songs and more. You are just one click away...

Login with Facebook Login with Google