Log in

One click and you are in

Login with Facebook Login with Google

Why sign up and log in

Guitar Tabs Explorer
Weezer guitar tabs for Any friend of dianes

Guitar tabs

Intro:
Guitar 2
e|------------------|
B|------------------|
G|------------------|
D|------------------|
A|--x-2p1----2p1----|
E|---------2-----2--|
Chorus 1:
Guitar 1
e|--4---4--4-4--x--2--2--|--0---0--0-0--x--2--2--|
B|--4---4--4-4--x--2--2--|--0---0--0-0--x--4--4--|
G|--4---4--4-4--x--5--5--|--1---1--1-1--x--4--4--|
D|--6---6--6-6--x--4--4--|--2---2--2-2--x--4--4--| (x2)
A|--6---6--6-6--x--4--4--|--2---2--2-2--x--2--2--|
E|--4---4--4-4--x--2--2--|--0---0--0-0--x--------|

e|--4--4--4--4---2--2--2--2--|--0--0--0--0---2--2--2--2--|
B|--4--4--4--4---2--2--2--2--|--0--0--0--0---4--4--4--4--|
G|--4--4--4--4---5--5--5--5--|--1--1--1--1---4--4--4--4--|
D|--6--6--6--6---4--4--4--4--|--2--2--2--2---4--4--4--4--| (x2)
A|--6--6--6--6---4--4--4--4--|--2--2--2--2---2--2--2--2--|
E|--4--4--4--4---2--2--2--2--|--0--0--0--0---------------|


Verse 1:
Guitar 1
e|--4--4--4--4---2--2--2--2--|--0--0--0--0---2--2--2--2--|
B|--4--4--4--4---2--2--2--2--|--0--0--0--0---4--4--4--4--|
G|--4--4--4--4---5--5--5--5--|--1--1--1--1---4--4--4--4--|
D|--6--6--6--6---4--4--4--4--|--2--2--2--2---4--4--4--4--|
A|--6--6--6--6---4--4--4--4--|--2--2--2--2---2--2--2--2--|
E|--4--4--4--4---2--2--2--2--|--0--0--0--0---------------|

e|--4--4--4--4---2--2--2--2--|--0--0--0--0--|------------------||
B|--4--4--4--4---2--2--2--2--|--0--0--0--0--|------------------||
G|--4--4--4--4---5--5--5--5--|--1--1--1--1--|------------------||
D|--6--6--6--6---4--4--4--4--|--2--2--2--2--|------------------||
A|--6--6--6--6---4--4--4--4--|--2--2--2--2--|------------------||
E|--4--4--4--4---2--2--2--2--|--0--0--0--0--|------------------||

Guitar 2
e|---------------------------|--------------|------------------||
B|---------------------------|--------------|------------------||
G|---------------------------|--------------|------------------||
D|---------------------------|--------------|------------------||
A|---------------------------|--------------|--x-2p1----2p1----||
E|---------------------------|--------------|---------2-----2--||

Guitar 1
e|--4--4--4--4---2--2--2--2--|--0--0--0--0---2--2--2--2--||
B|--4--4--4--4---2--2--2--2--|--0--0--0--0---4--4--4--4--||
G|--4--4--4--4---5--5--5--5--|--1--1--1--1---4--4--4--4--||
D|--6--6--6--6---4--4--4--4--|--2--2--2--2---4--4--4--4--||
A|--6--6--6--6---4--4--4--4--|--2--2--2--2---2--2--2--2--||
E|--4--4--4--4---2--2--2--2--|--0--0--0--0---------------||
Guitar 2                                                  | (x2)
e|---------------------------|---------------------------||
B|--------7-------------7----|--------4------4--2-4------||
G|-----8----8--------8----8--|-----4-----4---------------||
D|--9-------------8----------|--6------------------------||
A|---------------------------|---------------------------||
E|---------------------------|---------------------------||

Chorus 2:
Guitar 1
e|--4--4--4--4---2--2--2--2--|--0--0--0--0---2--2--2--2--|
B|--4--4--4--4---2--2--2--2--|--0--0--0--0---4--4--4--4--|
G|--4--4--4--4---5--5--5--5--|--1--1--1--1---4--4--4--4--|
D|--6--6--6--6---4--4--4--4--|--2--2--2--2---4--4--4--4--| (x4)
A|--6--6--6--6---4--4--4--4--|--2--2--2--2---2--2--2--2--|
E|--4--4--4--4---2--2--2--2--|--0--0--0--0---------------|


Verse 2:
Guitar 1
e|--4---4--4-4--x--2--2--|--0---0--0-0--x--2--2--|
B|--4---4--4-4--x--2--2--|--0---0--0-0--x--4--4--|
G|--4---4--4-4--x--5--5--|--1---1--1-1--x--4--4--|
D|--6---6--6-6--x--4--4--|--2---2--2-2--x--4--4--|
A|--6---6--6-6--x--4--4--|--2---2--2-2--x--2--2--|
E|--4---4--4-4--x--2--2--|--0---0--0-0--x--------|

Guitar 1
e|--4--4--4--4---2--2--2--2--|--0--0--0--0--|------------------||
B|--4--4--4--4---2--2--2--2--|--0--0--0--0--|------------------||
G|--4--4--4--4---5--5--5--5--|--1--1--1--1--|------------------||
D|--6--6--6--6---4--4--4--4--|--2--2--2--2--|------------------||
A|--6--6--6--6---4--4--4--4--|--2--2--2--2--|------------------||
E|--4--4--4--4---2--2--2--2--|--0--0--0--0--|------------------||

Guitar 2
e|---------------------------|--------------|------------------||
B|---------------------------|--------------|------------------||
G|---------------------------|--------------|------------------||
D|---------------------------|--------------|------------------||
A|---------------------------|--------------|--x-2p1----2p1----||
E|---------------------------|--------------|---------2-----2--||

Guitar 1
e|--4--4--4--4---2--2--2--2--|--0--0--0--0---2--2--2--2----||
B|--4--4--4--4---2--2--2--2--|--0--0--0--0---4--4--4--4----||
G|--4--4--4--4---5--5--5--5--|--1--1--1--1---4--4--4--4----||
D|--6--6--6--6---4--4--4--4--|--2--2--2--2---4--4--4--4----||
A|--6--6--6--6---4--4--4--4--|--2--2--2--2---2--2--2--2----||
E|--4--4--4--4---2--2--2--2--|--0--0--0--0-----------------||
Guitar 2                                                    |
e|---------------------------|--------------|--------------||
B|---------------------------|--------------|--------------||
G|-1-1---1-1-----3-3---3-3---|--4-4---4-4---|-8-8--6--4-3--||
D|-----1-----1-------5-----5-|------6-----6-|--------------||
A|---------------------------|--------------|--------------||
E|---------------------------|--------------|--------------||
               PM                   PM
Guitar 1
e|--4--4--4--4---2--2--2--2--|--0--0--0--0--|--------------||
B|--4--4--4--4---2--2--2--2--|--0--0--0--0--|--------------||
G|--4--4--4--4---5--5--5--5--|--1--1--1--1--|--------------||
D|--6--6--6--6---4--4--4--4--|--2--2--2--2--|--------------||
A|--6--6--6--6---4--4--4--4--|--2--2--2--2--|--------------||
E|--4--4--4--4---2--2--2--2--|--0--0--0--0--|--------------||
Guitar 2                                                    |
e|---------------------------|--------------|--------------||
B|---------------------------|--------------|--------------||
G|-1-1---1-1-----3-3---3-3---|--4-4---4-4---|--------------||
D|-----1-----1-------5-----5-|------6-----6-|--------------||
A|---------------------------|--------------|-6-6--4---2-1-||
E|---------------------------|--------------|--------------||
               PM                   PM


Chorus 3:
Guitar 1
e|--4--4--4--4---2--2--2--2--|--0--0--0--0---2--2--2--2--|
B|--4--4--4--4---2--2--2--2--|--0--0--0--0---4--4--4--4--|
G|--4--4--4--4---5--5--5--5--|--1--1--1--1---4--4--4--4--|
D|--6--6--6--6---4--4--4--4--|--2--2--2--2---4--4--4--4--| (x4)
A|--6--6--6--6---4--4--4--4--|--2--2--2--2---2--2--2--2--|
E|--4--4--4--4---2--2--2--2--|--0--0--0--0---------------|


Bridge:
Guitar 1
e|--2--2--x-2-2-2--x-|--4--4--x-4-4-4--x-|
B|--4--4--x-2-2-2--x-|--4--4--x-4-4-4--x-|
G|--4--4--x-5-5-5--x-|--4--4--x-4-4-4--x-|
D|--4--4--x-4-4-4--x-|--6--6--x-6-6-6--x-| (x3)
A|--2--2--x-4-4-4--x-|--6--6--x-6-6-6--x-|
E|--------x-2-2-2--x-|--4--4--x-4-4-4--x-|

e|--2-2-2-2--2-2-2-2--|--4-4-4-4--|---------|
B|--4-4-4-4--2-2-2-2--|--4-4-4-4--|---------|
G|--4-4-4-4--5-5-5-5--|--4-4-4-4--|---------|
D|--4-4-4-4--4-4-4-4--|--6-6-6-6--|---------|
A|--2-2-2-2--4-4-4-4--|--6-6-6-6--|---------|
E|-----------2-2-2-2--|--4-4-4-4--|---------|


Solo:
Guitar 1
e|--2-2-2-2--2-2-2-2--|--4-4-4-4---4-4-4-4--|
B|--4-4-4-4--2-2-2-2--|--4-4-4-4---4-4-4-4--|
G|--4-4-4-4--5-5-5-5--|--4-4-4-4---4-4-4-4--|
D|--4-4-4-4--4-4-4-4--|--6-6-6-6---6-6-6-6--| (x4)
A|--2-2-2-2--4-4-4-4--|--6-6-6-6---6-6-6-6--|
E|-----------2-2-2-2--|--4-4-4-4---4-4-4-4--|

Guitar 3
e|-14-14--11--------------------------|---------------------------|
B|-----------14-11--11-11-11-11-11h12-|-11-11-11h12---------------|
G|------------------------------------|-------------13-11---------|
D|------------------------------------|-------------------13---13-|
A|------------------------------------|---------------------------|
E|------------------------------------|---------------------------|

e|----------7-11--9--7-|------------------|-----7-11-9-7---------------|
B|--------7------------|-11h12p11--9--7---|---7----------11--11--11-11-|
G|------8--------------|----------------8-|-8--------------------------|
D|----9----------------|------------------|----------------------------|
A|---------------------|------------------|----------------------------|
E|-7-------------------|------------------|----------------------------|

e|------------------------|-------------------------------------|
B|-11-11-11-11-9-11-12----|-12-12-12-12--12--12-12--12-12-12-12-|
G|----------------------8-|-------------------------------------|
D|------------------------|-------------------------------------|
A|------------------------|-------------------------------------|
E|------------------------|-------------------------------------|

e|------------------------|------------------------|
B|-11-11-11-11--11--11-11-|-11h12p11--9--7--9--7---|
G|------------------------|----------------------8-|
D|------------------------|------------------------|
A|------------------------|------------------------|
E|------------------------|------------------------|


Verse 3:
Guitar 1
e|--4--4--4--4---2--2--2--2--|--0--0--0--0---2--2--2--2--|
B|--4--4--4--4---2--2--2--2--|--0--0--0--0---4--4--4--4--|
G|--4--4--4--4---5--5--5--5--|--1--1--1--1---4--4--4--4--|
D|--6--6--6--6---4--4--4--4--|--2--2--2--2---4--4--4--4--| (x4)
A|--6--6--6--6---4--4--4--4--|--2--2--2--2---2--2--2--2--|
E|--4--4--4--4---2--2--2--2--|--0--0--0--0---------------|


Outro:
Guitar 1
e|--4--4--4--4---2--2--2--2--|--0--0--0--0---2--2--2--2--|
B|--4--4--4--4---2--2--2--2--|--0--0--0--0---4--4--4--4--|
G|--4--4--4--4---5--5--5--5--|--1--1--1--1---4--4--4--4--|
D|--6--6--6--6---4--4--4--4--|--2--2--2--2---4--4--4--4--| (x4)
A|--6--6--6--6---4--4--4--4--|--2--2--2--2---2--2--2--2--|
E|--4--4--4--4---2--2--2--2--|--0--0--0--0---------------|

↓ Add and view comments below ↓

What do you think about this song and these tabs?

Add your comments, questions, rant or a thumbs up below.

Almost there ...

Sign in to get your own page with links to favourite songs and more. You are just one click away...

Login with Facebook Login with Google