Log in

One click and you are in

Login with Facebook Login with Google

Why sign up and log in

Guitar Tabs Explorer
Weezer guitar chords for American gigolo

Guitar chords

INTRO: 2X
------------------------------------------------------------------------------
------------------------------------------------------------------------------
-----------------------------5-5---6-6---7-7----------------------------------
----3-3-3---4-4---5-5--------5-5---6-6---7-7----------------------------------
----3-3-3---4-4---5-5--------3-3---4-4---5-5----------------------------------
----1-1-1---2-2---3-3---------------------------------------------------------


Verse
~~~~~  scrape chord with pick... listen to song for timing.
------------------------------------------------------------------------------
------------------------------------------------------------------------------
------------------------------------------------------------------------------
------------------------------------------------------------------------------
--------------------------------3--------------3-3---4-4----55----------------
--------1-1---2-2---3-3-----------------------------------------------1-------
   sit down quiet everybody >>                  got a long way to go


  keep on keep on keep on keep on >>      keep on keep on keep on keep on yeah..



Bridge
~~~~~~
------------------------------------------------------------------------------
------------------------------------------------------------------------------
----------------------3-3-3--------------------------3-3-3--------------------
----3-3-3-------------3-3-3-------------3-3-3--------3-3-3--------------------
----3-3-3-------------1-1-1--etc..------3-3-3--------1-1-1--------------------
----1-etc..-----------------------------1-1-1---------------------------------
   If you want me >>                    you cant have me



Bridge
~~~~~~If you want me/ you cant have me/ cus im hurting/ so i beg you



Chorus (when rivers sings the last line they do a uh uh uh uh...simply use A chord diagramE minorEm x220xx)
~~~~~~
--------------------------------------------------------------------------------
--------------------------------------------------------------------------------
---3-3-3-3-------5-5-5-5---------------------7-7-7-7----------------------------
---3-3-3-3-------5-5-5-5------3-3-3-3--------7-7-7-7----------------------------
---1-1-1-1-------3-3-3-3------3-3-3-3--------5-5-5-5----------------------------
------------------------------1-1-1-1-------------------------------------------
  I've          seen this      game  before

  My love walks right through the door
                                                A chord diagramE minorEm
  there aint no hope for me anymooooore......uh uh uh uh


Solo
~~~~



Bridge   If you want me/ you cant have me/ cus im hurting/ so i beg you
~~~~~~



CHORUS    I've seen this game  before
~~~~~~    My love walks right through the door
          there aint no hope for me anymooooore......uh uh uh uh


end with this 4x                      End 1x
------------------------    -----------------------------
------------------------    -----------------------------
--5-5---6-6---7-7-------    -----------------------------
--5-5---6-6---7-7-------    ---------3-------------------
--3-3---4-4---5-5-------    ---------3-------------------
------------------------    ---------1-------------------

↓ Add and view comments below ↓

What do you think about this song and these chords?

Add your comments, questions, rant or a thumbs up below.

Almost there ...

Sign in to get your own page with links to favourite songs and more. You are just one click away...

Login with Facebook Login with Google