Log in

One click and you are in

Login with Facebook Login with Google

Why sign up and log in

Guitar Tabs Explorer
Weezer guitar tabs for Across the sea

Guitar tabs

Song - Across the Sea
Artist - Weezer

Key
v = vibrato
b = bend
r = release
t = tremolo pick
~ = sustain
Tuning is standard, half step down.


Intro
Eb|---------------------------------------------------------------|
Bb|---------------------------------------------------------------|
Gb|-4~-----------------9--9--7-7----------------------------------|
Db|-5~-----5--5--9--9--9--9--7-7--5--5--9-9--10-10--12--12--------|
Ab|-5~-----5--5--9--9--7--7--5-5--5--5--9-9--10-10--12--12--------|
Eb|-3~-----3--3--7--7-------------3--3--7-7---8--8--10--10--------|


Verse
Eb|-----------------------------------------------------|
Bb|-----------------------------------------------------|
Gb|--------------9--9--7--7-----------------------------|
Db|--5--5--9--9--9--9--7--7--5--5--9--9--10-10--12--12--|
Ab|--5--5--9--9--7--7--5--5--5--5--9--9--10-10--12--12--|
Eb|--3--3--7--7--------------3--3--7--7---8--8--10--10--|

Eb|--------------------------------------------------|
Bb|--------------------------------------------------|
Gb|--------------9--9--7--7--------------9--9--7--7--|
Db|--5--5--9--9--9--9--7--7--5--5--9--9--9--9--7--7--|
Ab|--5--5--9--9--7--7--5--5--5--5--9--9--7--7--5--5--|
Eb|--3--3--7--7--------------3--3--7--7--------------|

Chorus
Eb|------------------------------------------------------|
Bb|------------------------------------------------------|
Gb|----------------------------------9--9--9-9--7-7-7-7--|
Db|--2-2-2-5--5--5-5--9-9-9-9--9-9-9-9--9--9-9--7-7-7-7--|
Ab|--2-2-2-5--5--5-5--9-9-9-9--9-9-9-7--7--7-7--5-5-5-5--|
Eb|--0-0-0-3--3--3-3--7-7-7-7--7-7-7---------------------|

Eb|----------------------------------------------------------|
Bb|----------------------------------------------------------|
Gb|----------------------------------9--9--9-9--7-7-7-7-7-7--|
Db|--2-2-2-5--5--5-5--9-9-9-9--9-9-9-9--9--9-9--7-7-7-7-7-7--|
Ab|--2-2-2-5--5--5-5--9-9-9-9--9-9-9-7--7--7-7--5-5-5-5-5-5--|
Eb|--0-0-0-3--3--3-3--7-7-7-7--7-7-7-------------------------|

Eb|--12-12-12-12-12--12-12-12-12--10-10-10-10-10--10-10-10-10--|
Bb|--13-13-13-13-13--13-13-13-13--12-12-12-12-12--12-12-12-12--|
Gb|------------------------------------------------------------|
Db|------------------------------------------------------------|
Ab|------------------------------------------------------------|
Eb|------------------------------------------------------------|
Eb|--15-15-15-15-15-15-15-15-15-15-15-15-15-15-15-15--|
Bb|--15-15-15-15-15-15-15-15-15-15-15-15-15-15-15-15--|
Gb|---------------------------------------------------|
Db|---------------------------------------------------|
Ab|---------------------------------------------------|
Eb|---------------------------------------------------|

Eb|--------------------------------------------------|
Bb|--------------------------------------------------|
Gb|--------------------7--7--5--5--7--7--------------|
Db|--5--5--5--5--2--2--7--5--5--5--7--7--5--5--5--5--|
Ab|--5--5--5--5--2--2--5--5--3--3--5--5--5--5--5--5--|
Eb|--3--3--2--2--0--0--------------------3--3--3--3--|

Eb|----0---0---0---0---0---0---0---0----15----15----15----15--|
Bb|--0---0---0---0---0---0---0---0---15----15----15----15-----|
Gb|-----------------------------------------------------------|
Db|-----------------------------------------------------------|
Ab|-----------------------------------------------------------|
Eb|-----------------------------------------------------------|

Eb|-----15----15----14----14--|
Bb|--15----15----15----15-----|
Gb|---------------------------|
Db|---------------------------|
Ab|---------------------------|
Eb|---------------------------|


Verse
Eb|-----------------------------------------------------|
Bb|-----------------------------------------------------|
Gb|--------------9--9--7--7-----------------------------|
Db|--5--5--9--9--9--9--7--7--5--5--9--9--10-10--12--12--|
Ab|--5--5--9--9--7--7--5--5--5--5--9--9--10-10--12--12--|
Eb|--3--3--7--7--------------3--3--7--7---8--8--10--10--|

Eb|-----------------------------------------------------|
Bb|-----------------------------------------------------|
Gb|--------------9--9--7--7-----------------------------|
Db|--5--5--9--9--9--9--7--7--5--5--9--9--10-10--12--12--|
Ab|--5--5--9--9--7--7--5--5--5--5--9--9--10-10--12--12--|
Eb|--3--3--7--7--------------3--3--7--7---8--8--10--10--|

Eb|---------------------------------------------------------|
Bb|---------------------------------------------------------|
Gb|---------------------------------------------------------|
Db|--5--5--9--9--10-10--12--12---5--5--9--9--10-10--12--12--|
Ab|--5--5--9--9--10-10--12--12---5--5--9--9--10-10--12--12--|
Eb|--3--3--7--7---8--8--10--10---3--3--7--7---8--8--10--10--|

Eb|---------------------------------------------------------|
Bb|---------------------------------------------------------|
Gb|---------------------------------------------------------|
Db|--5--5--9--9--10-10--12--12---5--5--9--9--10-10--12--12--|
Ab|--5--5--9--9--10-10--12--12---5--5--9--9--10-10--12--12--|
Eb|--3--3--7--7---8--8--10--10---3--3--7--7---8--8--10--10--|


Chorus
Eb|------------------------------------------------------|
Bb|------------------------------------------------------|
Gb|----------------------------------9--9--9-9--7-7-7-7--|
Db|--2-2-2-5--5--5-5--9-9-9-9--9-9-9-9--9--9-9--7-7-7-7--|
Ab|--2-2-2-5--5--5-5--9-9-9-9--9-9-9-7--7--7-7--5-5-5-5--|
Eb|--0-0-0-3--3--3-3--7-7-7-7--7-7-7---------------------|

Eb|----------------------------------------------------------|
Bb|----------------------------------------------------------|
Gb|----------------------------------9--9--9-9--7-7-7-7-7-7--|
Db|--2-2-2-5--5--5-5--9-9-9-9--9-9-9-9--9--9-9--7-7-7-7-7-7--|
Ab|--2-2-2-5--5--5-5--9-9-9-9--9-9-9-7--7--7-7--5-5-5-5-5-5--|
Eb|--0-0-0-3--3--3-3--7-7-7-7--7-7-7-------------------------|

Eb|--12-12-12-12-12--12-12-12-12--10-10-10-10-10--10-10-10-10--|
Bb|--13-13-13-13-13--13-13-13-13--12-12-12-12-12--12-12-12-12--|
Gb|------------------------------------------------------------|
Db|------------------------------------------------------------|
Ab|------------------------------------------------------------|
Eb|------------------------------------------------------------|

Eb|--15-15-15-15-15-15-15-15-15-15-15-15-15-15-15-15--|
Bb|--15-15-15-15-15-15-15-15-15-15-15-15-15-15-15-15--|
Gb|---------------------------------------------------|
Db|---------------------------------------------------|
Ab|---------------------------------------------------|
Eb|---------------------------------------------------|

Eb|--------------------------------------------------|
Bb|--------------------------------------------------|
Gb|--------------------7--7--5--5--7--7--------------|
Db|--5--5--5--5--2--2--7--5--5--5--7--7--5--5--5--5--|
Ab|--5--5--5--5--2--2--5--5--3--3--5--5--5--5--5--5--|
Eb|--3--3--2--2--0--0--------------------3--3--3--3--|


Solo
Eb|--6-6-6-8-8-8-10-10--15-15-15-13-13-13-10-10-10-10-10-10-8-8-6-6--|
Bb|--x-x-x-x-x-x--x--x---x--x--x--x--x--x--x--x--x--x--x--x-x-x-x-x--|
Gb|--3-3-3-5-5-5--7--7--12-12-12-10-10-10--7--7--7--7--7--7-5-5-3-3--|
Db|------------------------------------------------------------------|
Ab|------------------------------------------------------------------|
Eb|------------------------------------------------------------------|

Eb|--18-18-18-17-17-17-13-13-15-15-15-10-10-10-13-13--|
Bb|---x--x--x--x--x--x--x--x--x--x--x--x--x--x--x--x--|
Gb|--15-15-15-14-14-14-10-10-12-12-12--7--7--7-10-10--|
Db|---------------------------------------------------|
Ab|---------------------------------------------------|
Eb|---------------------------------------------------|




Eb|-----------------------------------------|
Bb|--15-13-13-13-13----13v~-----13----15v~--|
Gb|-----------------15-------15----15-------|
Db|-----------------------------------------|
Ab|-----------------------------------------|
Eb|-----------------------------------------|

Eb|--15-15-15-14-14-14-10-10-12-12-12-14-14-14-15-15--|
Bb|---x--x--x--x--x--x--x--x--x--x--x--x--x--x--x--x--|
Gb|--12-12-12-11-11-11--7--7--9--9--9-11-11-11-12-12--|
Db|---------------------------------------------------|
Ab|---------------------------------------------------|
Eb|---------------------------------------------------|

Eb|----------------------------------------------------------|
Bb|--12-10-10-10-10----10v~--15t15t15t15t15t15t15t15t-13-12--|
Gb|-----------------12---------------------------------------|
Db|----------------------------------------------------------|
Ab|----------------------------------------------------------|
Eb|----------------------------------------------------------|

Eb|-------------------------------------|
Bb|--------12-12-12-14-14--14b--14r-----|
Gb|--13-13-------------------------13~--|
Db|-------------------------------------|
Ab|-------------------------------------|
Eb|-------------------------------------|

Eb|--16-16-16-14-14-14-14-14-14-14-14-14-16-16------|
Bb|---x--x--x--x--x--x--x--x--x--x--x--x--x--x-(0)--|
Gb|--13-13-13-11-11-11-11-11-11-11-11-11-13-13------|
Db|-------------------------------------------------|
Ab|-------------------------------------------------|
Eb|-------------------------------------------------|

Breakdown
Eb|--------------------------------------------|
Bb|--------------------------------------------|
Gb|--9--8--6--4-----------9--8--6--4-----------|
Db|--9--8--6--4--7--6--9--9--8--6--4--7--6--9--|
Ab|--7--6--4--2--7--6--9--7--6--4--2--7--6--9--|
Eb|--------------5--4--7--------------5--4--7--|

Eb|-----------------------------------------------------------|
Bb|-----------------------------------------------------------|
Gb|--9-9-9-9-8-8-8-8-6-6-6-6-4-4-4-4--------------------------|
Db|--9-9-9-9-8-8-8-8-6-6-6-6-4-4-4-4-7-7-7-7-6-6-6-6-9-9-9-9--|
Ab|--7-7-7-7-6-6-6-6-4-4-4-4-2-2-2-2-7-7-7-7-6-6-6-6-9-9-9-9--|
Eb|----------------------------------5-5-5-5-4-4-4-4-7-7-7-7--|

Eb|-----------------------------------------------------------|
Bb|-----------------------------------------------------------|
Gb|--9-9-9-9-8-8-8-8-6-6-6-6-4-4-4-4--------------------------|
Db|--9-9-9-9-8-8-8-8-6-6-6-6-4-4-4-4-7-7-7-7-6-6-6-6-9-9-9-9--|
Ab|--7-7-7-7-6-6-6-6-4-4-4-4-2-2-2-2-7-7-7-7-6-6-6-6-9-9-9-9--|
Eb|----------------------------------5-5-5-5-4-4-4-4-7-7-7-7--|


Verse
Eb|---------------------------------------------------------|
Bb|---------------------------------------------------------|
Gb|---------------------------------------------------------|
Db|--5--5--9--9--10-10--12--12---5--5--9--9--10-10--12--12--|
Ab|--5--5--9--9--10-10--12--12---5--5--9--9--10-10--12--12--|
Eb|--3--3--7--7---8--8--10--10---3--3--7--7---8--8--10--10--|

Eb|-----------------------------------------------------|
Bb|-----------------------------------------------------|
Gb|--------------9--9--7--7-----------------------------|
Db|--5--5--9--9--9--9--7--7--5--5--9--9--10-10--12--12--|
Ab|--5--5--9--9--7--7--5--5--5--5--9--9--10-10--12--12--|
Eb|--3--3--7--7--------------3--3--7--7---8--8--10--10--|

Eb|--------------------------------------------------|
Bb|--------------------------------------------------|
Gb|--------------------------9--9--------------------|
Db|--5--5--9--9--10--10--12--9--9--9--9--10--10--12--|
Ab|--5--5--9--9--10--10--12--7--7--9--9--10--10--12--|
Eb|--3--3--7--7---8---8--10--------7--7---8---8--10--|


Chorus
Eb|-------------------------------------------------------|
Bb|-------------------------------------------------------|
Gb|--------------------------------------9--9--9-9-7-7-7--|
Db|--5--5--5-5--9-9-9-9--9-9--7--7--7-7--9--9--9-9-7-7-7--|
Ab|--5--5--5-5--9-9-9-9--9-9--7--5--7-7--7--7--7-7-5-5-5--|
Eb|--3--3--3-3--7-7-7-7--7-7--5--5--5-5-------------------|

Eb|------------------------------------------------------|
Bb|------------------------------------------------------|
Gb|---------------------------------------9-9-9-9-9-9-9--|
Db|--5--5--5-5--9-9-9-9--9-9-9-7--7--7-7--9-9-9-9-9-9-9--|
Ab|--5--5--5-5--9-9-9-9--9-9-9-7--5--7-7--7-7-7-7-7-7-7--|
Eb|--3--3--3-3--7-7-7-7--7-7-7-5--5--5-5-----------------|

Eb|--12-12-12-12-12--12-12-12-12--10-10-10-10-10--10-10-10-10--|
Bb|--13-13-13-13-13--13-13-13-13--12-12-12-12-12--12-12-12-12--|
Gb|------------------------------------------------------------|
Db|------------------------------------------------------------|
Ab|------------------------------------------------------------|
Eb|------------------------------------------------------------|

Eb|--15-15-15-15-15-15-15-15-15-15-15-15-15-15-15-15--|
Bb|--15-15-15-15-15-15-15-15-15-15-15-15-15-15-15-15--|
Gb|---------------------------------------------------|
Db|---------------------------------------------------|
Ab|---------------------------------------------------|
Eb|---------------------------------------------------|

Eb|--------------------------------------------------|
Bb|--------------------------------------------------|
Gb|--------------------7--7--5--5--7--7--------------|
Db|--5--5--5--5--2--2--7--5--5--5--7--7--5--5--5--5--|
Ab|--5--5--5--5--2--2--5--5--3--3--5--5--5--5--5--5--|
Eb|--3--3--2--2--0--0--------------------3--3--3--3--|

Eb|---------------------------------------|
Bb|---------------------------------------|
Gb|--------------------7--7--5~---7~------|
Db|--5--5--5--5--2--2--7--5--5~---7~---5--|
Ab|--5--5--5--5--2--2--5--5--3~---5~---5--|
Eb|--3--3--2--2--0--0------------------3--|

Other versions of Across The Sea

Across the seaChords

↓ Add and view comments below ↓

What do you think about this song and these tabs?

Add your comments, questions, rant or a thumbs up below.

Almost there ...

Sign in to get your own page with links to favourite songs and more. You are just one click away...

Login with Facebook Login with Google