Log in

One click and you are in

Login with Facebook Login with Google

Why sign up and log in

Guitar Tabs Explorer
Ween bass tabs for I dont wanna leave you on the farm

I Don't Wanna Leave You On The Farm bass tab by Ween

Ween bass tabs for I dont wanna leave you on the farm

Bass tabs

Verse 1: (0:01)

G|-------|---------|---------|-------------|------------|-------------|--------------|
D|-------|---------|---------|-------------|---2--------|-------------|------2-3-----|
A|-------|-3---3---|-3---3---|-3---3---3-2-|-0---0--0-2-|-3--3--0--0--|-3--5------3--|
E|-3-5-7-|---3---3-|---3---3-|---3----3----|------------|-------------|--------------|

G|---------------|-------------|-----------|
D|---------------|-------------|-----------|
A|------0--3--3--|----------7--|------7----|
E|-1--1----------|-3--3--5-----|-5--5---0--|

Chorus: (0:24)

G|-------------|--------------|-------------|--------------|
D|-------------|--------------|-------------|--------------|
A|-0--0--7--7--|-------3--3-2-|-0--0--------|-3----3---3-2-|
E|-------------|-1--1---------|-------1--1--|----3----3----|

G|-------------|--------------|-------------|-----------------|
D|-------------|--------------|-------------|-----------------|
A|-0--0--------|-------3--5-7-|-8--8--------|-3-----3-3-----2-|
E|-------0--0--|-1--1---------|-------3--3--|----3------3-5---|


Verse 2: (0:46)

G|---------|---------|-------------|------------|-------------|--------------|
D|---------|---------|-------------|---2--------|-------------|------2-3-----|
A|-3---3---|-3---3---|-3---3---3-2-|-0---0--0-2-|-3--3--0--0--|-3--5------3--|
E|---3---3-|---3---3-|---3----3----|------------|-------------|--------------|

G|---------------|-------------|-----------|
D|---------------|-------------|-----------|
A|------0--3--3--|----------7--|------7----|
E|-1--1----------|-3--3--5-----|-5--5---0--|


Chorus: (1:08)

G|-------------|--------------|-------------|--------------|
D|-------------|--------------|-------------|--------------|
A|-0--0--7--7--|-------3--3-2-|-0--0--------|-3----3---3-2-|
E|-------------|-1--1---------|-------1--1--|----3----3----|

G|-------------|--------------|-------------|-----------------|
D|-------------|--------------|-------------|-----------------|
A|-0--0--------|-------3--5-7-|-8--8--------|-3-----3-3-----2-|
E|-------0--0--|-1--1---------|-------3--3--|----3------3-5---|


Verse 3: (1:29)

G|---------|---------|-------------|------------|-------------|--------------|
D|---------|---------|-------------|---2--------|-------------|------2-3-----|
A|-3---3---|-3---3---|-3---3---3-2-|-0---0--0-2-|-3--3--0--0--|-3--5------3--|
E|---3---3-|---3---3-|---3----3----|------------|-------------|--------------|

G|---------------|-------------|-----------|
D|---------------|-------------|-----------|
A|------0--3--3--|----------7--|------7----|
E|-1--1----------|-3--3--5-----|-5--5---0--|


Chorus: (1:52)

G|-------------|--------------|-------------|--------------|
D|-------------|--------------|-------------|--------------|
A|-0--0--7--7--|-------3--3-2-|-0--0--------|-3----3---3-2-|
E|-------------|-1--1---------|-------1--1--|----3----3----|

G|-------------|--------------|-------------|-----------------|
D|-------------|--------------|-------------|-----------------|
A|-0--0--------|-------3--5-7-|-8--8--------|-3-----3-3-----2-|
E|-------0--0--|-1--1---------|-------3--3--|----3------3-5---|


Outro: (2:13)

G|---------|--------------|-------------|------------|-------------|--------------|
D|---------|----------5---|-------------|---2--------|-------------|------2-3-----|
A|-3---3---|-3---3--3-----|-3---3---3-2-|-0---0--0-2-|-3--3--0--0--|-3--5------3--|
E|---3---3-|---3--------3-|---3----3----|------------|-------------|--------------|

G|---------------|--------------------|
D|---------------|--------------------|
A|-----0-2-3--3--|------------7-------|
E|-1-1-----------|-3--3--5--5----0--5-|

Almost there ...

Sign in to get your own page with links to favourite songs and more. You are just one click away...

Login with Facebook Login with Google