Search tabs and chords

Search for song, artist or band

Log in

One click and you are in

Login with Facebook Login with Google

Why sign up and log in

Guitar Tabs Explorer
Weedeater guitar tabs for Time served

Guitar tabs

Tabbed by:Rebeltildeth87

I think they play in A chord diagramD MajorD standard which is DGCFAD
|----------------------|
|----------------------|
|----------------------|
|----/9----------------|
|-2--/7----5-----------|
|-0------0h3-0-3b-0-3b-|


Wanted for something I didnt do
|----------------------|
|----------------------|
|----------------------|
|----------------------|
|-7--------------------|
|-5--------------------|

God damn you fuckin pig
|----------------------|
|----------------------|
|----------------------|
|----------------------|
|-5--------------------|

Almost there ...

Sign in to get your own page with links to favourite songs and more. You are just one click away...

Login with Facebook Login with Google