Log in

One click and you are in

Login with Facebook Login with Google

Why sign up and log in

Guitar Tabs Explorer
Weedeater bass tabs for Jason the dragon

Bass tabs

Main Riff: (0:00-1:26)
F|------------------------------------------|
C|------------------------------------------|
G|---7---7---7---7-5---5---5----------------|
D|-----0---0---0-----7---7---7-6-5-3--------|

Verse: (1:27-1:53)
F|---------------------------------------------------|
C|---------------9-----------------------------------|
G|---------------7---------------------5-7-5---------|
D|---0---0-3-0-------0-----0-3-0---5-7-------7-5-3---|

F|---------------------------------------------------|
C|---------------9-----------------------------------|
G|---------------7-----------------7-5-----7-5-------|
D|---0---0-3-0-------0-----0-3-0-------7-5-----7-5---|

Main Riff: (1:54-2:22)
F|------------------------------------------|
C|------------------------------------------|
G|---7---7---7---7-5---5---5----------------|
D|-----0---0---0-----7---7---7-6-5-3--------|

Verse: (2:23-2:47)
F|---------------------------------------------------|
C|---------------9-----------------------------------|
G|---------------7---------------------5-7-5---------|
D|---0---0-3-0-------0-----0-3-0---5-7-------7-5-3---|

F|---------------------------------------------------|
C|---------------9-----------------------------------|
G|---------------7-----------------7-5-----7-5-------|
D|---0---0-3-0-------0-----0-3-0-------7-5-----7-5---|

Chorus: (2:48-3:13)
F|-------------------------------------------|
C|-------------------------------------------|
G|-------------------------------------------|
D|---6-6-6-5---5-5-5---0-3-6---5-3-----------|

Main Riff: (3:13-3:42)
F|------------------------------------------|
C|------------------------------------------|
G|---7---7---7---7-5---5---5----------------|
D|-----0---0---0-----7---7---7-6-5-3--------|

Verse: (3:43-4:08)
F|---------------------------------------------------|
C|---------------9-----------------------------------|
G|---------------7---------------------5-7-5---------|
D|---0---0-3-0-------0-----0-3-0---5-7-------7-5-3---|

F|---------------------------------------------------|
C|---------------9-----------------------------------|
G|---------------7-----------------7-5-----7-5-------|
D|---0---0-3-0-------0-----0-3-0-------7-5-----7-5---|

Chorus: (4:09-4:35)
F|-------------------------------------------|
C|-------------------------------------------|
G|-------------------------------------------|
D|---6-6-6-5---5-5-5---0-3-6---5-3-----------|

Main Riff: (4:35-5:03)
F|------------------------------------------|
C|------------------------------------------|
G|---7---7---7---7-5---5---5----------------|
D|-----0---0---0-----7---7---7-6-5-3--------|

Verse: (5:04-5:29)
F|---------------------------------------------------|
C|---------------9-----------------------------------|
G|---------------7---------------------5-7-5---------|
D|---0---0-3-0-------0-----0-3-0---5-7-------7-5-3---|

F|---------------------------------------------------|
C|---------------9-----------------------------------|
G|---------------7-----------------7-5-----7-5-------|
D|---0---0-3-0-------0-----0-3-0-------7-5-----7-5---|

Ending: (5:29-5:43)
F|--------------------|
C|--------------------|
G|--7-5-----7-5-------|  x17
D|------7-5-----7-5---|

F|--------------------|
C|--------------------|
G|--------------------|

Almost there ...

Sign in to get your own page with links to favourite songs and more. You are just one click away...

Login with Facebook Login with Google