Search tabs and chords

Search for song, artist or band

Log in

One click and you are in

Login with Facebook Login with Google

Why sign up and log in

Guitar Tabs Explorer
Wednesday 13 guitar tabs for Undead unplugged album

Guitar tabs

This album tab is created by Living Dead 31.

Wednesday 13 - Undead Unplugged (2014)

Tuning: Drop A chord diagramC majorC



1. Undead



Intro/Verse::


D--0--0-0-0--0--0-0-0--0--0-0-0--0--0-0-0------
A--3--3-3-3--3--3-3-3--3--3-3-3--3--3-3-3------
F--2--2-2-2--2--2-2-2--2--2-2-2--2--2-2-2------
C--0--0-0-0--0--0-0-0--0--0-0-0--0--0-0-0------
G--0--0-0-0--0--0-0-0--0--0-0-0--0--0-0-0------
C------------------------------------------0--- (x5)


Pre-Chorus::


D--0--0-0-0--0--0-0-0--0--0-0-0--0--0-0-0---
A--3--3-3-3--3--3-3-3--3--3-3-3--3--3-3-3---
F--2--2-2-2--2--2-2-2--2--2-2-2--2--2-2-2---
C--0--0-0-0--0--0-0-0--0--0-0-0--0--0-0-0---
G--0--0-0-0--0--0-0-0--0--0-0-0--0--0-0-0---
C-------------------------------------------


Chorus::


D----------------------------------------------
A----------------------------------------------
F----------------------------------------------
C--/--3--3-3-3--3--3-3-3--5--5-5-5--5--5-5-5---
G--/--3--3-3-3--3--3-3-3--5--5-5-5--5--5-5-5---
C--/--3--3-3-3--3--3-3-3--5--5-5-5--5--5-5-5---



Verse::


D--0--0-0-0--0--0-0-0--0--0-0-0--0--0-0-0-------
A--3--3-3-3--3--3-3-3--3--3-3-3--3--3-3-3-------
F--2--2-2-2--2--2-2-2--2--2-2-2--2--2-2-2-------
C--0--0-0-0--0--0-0-0--0--0-0-0--0--0-0-0-------
G--0--0-0-0--0--0-0-0--0--0-0-0--0--0-0-0-------
C-------------------------------------------0--- (x2)



Pre-Chorus::


D--0--0-0-0--0--0-0-0--0--0-0-0--0--0-0-0---
A--3--3-3-3--3--3-3-3--3--3-3-3--3--3-3-3---
F--2--2-2-2--2--2-2-2--2--2-2-2--2--2-2-2---
C--0--0-0-0--0--0-0-0--0--0-0-0--0--0-0-0---
G--0--0-0-0--0--0-0-0--0--0-0-0--0--0-0-0---
C-------------------------------------------



Chorus::


D----------------------------------------------
A----------------------------------------------
F----------------------------------------------
C--/--3--3-3-3--3--3-3-3--5--5-5-5--5--5-5-5---
G--/--3--3-3-3--3--3-3-3--5--5-5-5--5--5-5-5---
C--/--3--3-3-3--3--3-3-3--5--5-5-5--5--5-5-5---


Verse::


D--0--0-0-0--0--0-0-0--0--0-0-0--0--0-0-0-------
A--3--3-3-3--3--3-3-3--3--3-3-3--3--3-3-3-------
F--2--2-2-2--2--2-2-2--2--2-2-2--2--2-2-2-------
C--0--0-0-0--0--0-0-0--0--0-0-0--0--0-0-0-------
G--0--0-0-0--0--0-0-0--0--0-0-0--0--0-0-0-------
C-------------------------------------------0--- (x2)


Pre-Chorus::


D--0--0-0-0--0--0-0-0--0--0-0-0--0--0-0-0---
A--3--3-3-3--3--3-3-3--3--3-3-3--3--3-3-3---
F--2--2-2-2--2--2-2-2--2--2-2-2--2--2-2-2---
C--0--0-0-0--0--0-0-0--0--0-0-0--0--0-0-0---
G--0--0-0-0--0--0-0-0--0--0-0-0--0--0-0-0---
C-------------------------------------------



Chorus::


D----------------------------------------------
A----------------------------------------------
F----------------------------------------------
C--/--3--3-3-3--3--3-3-3--5--5-5-5--5--5-5-5---
G--/--3--3-3-3--3--3-3-3--5--5-5-5--5--5-5-5---
C--/--3--3-3-3--3--3-3-3--5--5-5-5--5--5-5-5---


D--0--0-0-0--0--0-0-0--0--0-0-0--0--0-0-0---
A--3--3-3-3--3--3-3-3--3--3-3-3--3--3-3-3---
F--2--2-2-2--2--2-2-2--2--2-2-2--2--2-2-2---
C--0--0-0-0--0--0-0-0--0--0-0-0--0--0-0-0---
G--0--0-0-0--0--0-0-0--0--0-0-0--0--0-0-0---
C-------------------------------------------


D----------------------------------------------
A----------------------------------------------
F----------------------------------------------
C--/--3--3-3-3--3--3-3-3--5--5-5-5--5--5-5-5---
G--/--3--3-3-3--3--3-3-3--5--5-5-5--5--5-5-5---
C--/--3--3-3-3--3--3-3-3--5--5-5-5--5--5-5-5---



D--0--0-0-0--0--0-0-0--0--0-0-0--0--0-0-0---
A--3--3-3-3--3--3-3-3--3--3-3-3--3--3-3-3---
F--2--2-2-2--2--2-2-2--2--2-2-2--2--2-2-2---
C--0--0-0-0--0--0-0-0--0--0-0-0--0--0-0-0---
G--0--0-0-0--0--0-0-0--0--0-0-0--0--0-0-0---
C-------------------------------------------


D----------------------------------------------
A----------------------------------------------
F----------------------------------------------
C--/--3--3-3-3--3--3-3-3--5--5-5-5--5--5-5-5---
G--/--3--3-3-3--3--3-3-3--5--5-5-5--5--5-5-5---
C--/--3--3-3-3--3--3-3-3--5--5-5-5--5--5-5-5---


D--0--0-0-0--0--0-0-0--0--0-0-0--0--0-0-0---
A--3--3-3-3--3--3-3-3--3--3-3-3--3--3-3-3---
F--2--2-2-2--2--2-2-2--2--2-2-2--2--2-2-2---
C--0--0-0-0--0--0-0-0--0--0-0-0--0--0-0-0---
G--0--0-0-0--0--0-0-0--0--0-0-0--0--0-0-0---
C-------------------------------------------


D----------------------------------------------
A----------------------------------------------
F----------------------------------------------
C--/--3--3-3-3--3--3-3-3--5--5-5-5--5--5-5-5---
G--/--3--3-3-3--3--3-3-3--5--5-5-5--5--5-5-5---
C--/--3--3-3-3--3--3-3-3--5--5-5-5--5--5-5-5---



Outro::


D--0--0-0-0--0--0-0-0--0--0-0-0--0--0-0-0-------
A--3--3-3-3--3--3-3-3--3--3-3-3--3--3-3-3-------
F--2--2-2-2--2--2-2-2--2--2-2-2--2--2-2-2-------
C--0--0-0-0--0--0-0-0--0--0-0-0--0--0-0-0-------
G--0--0-0-0--0--0-0-0--0--0-0-0--0--0-0-0-------
C-------------------------------------------0--- (x4)









2. Dead Carolina



Intro::



D--0-0-0-0---0-0-0--0-0-0-0---0-0-0----------------------------------
A--3-3-3-3---3-3-3--0-0-0-0---0-0-0----------------------------------
F--2-2-2-2---2-2-2--2-2-2-2---2-2-2---3-3-3-3-3-3-3--5-5-5-5-5-5-5---
C--0-0-0-0---0-0-0--2-2-2-2---2-2-2---3-3-3-3-3-3-3--5-5-5-5-5-5-5---
G--0-0-0-0---0-0-0--0-0-0-0---0-0-0---1-1-1-1-1-1-1--3-3-3-3-3-3-3---
C--------------------------------------------------------------------  (x2)



Verse::



D--0-0-000-0-0-0--0--0--000-0-0-0--0--0--000-0-0-0--0--0---000-0-0-0--0--0---
A--3-3-333-3-3-3--3--3--333-3-3-3--3--3--333-3-3-3--3--3---333-3-3-3--3--3---
F--2-2-222-2-2-2--2--2--222-2-2-2--2--2--222-2-2-2--2--2---222-2-2-2--2--2---
C--0-0-000-0-0-0--0--0--000-0-0-0--0--0--000-0-0-0--0--0---000-0-0-0--0--0---
G--0-0-000-0-0-0--0--0--000-0-0-0--0--0--000-0-0-0--0--0---000-0-0-0--0--0---
C----------------------------------------------------------------------------



D--000-0-0-0--0--0--000-0-0-0--0--0---000-0-0-0--0--0---
A--333-3-3-3--3--3--333-3-3-3--3--3---333-3-3-3--3--3---
F--222-2-2-2--2--2--222-2-2-2--2--2---222-2-2-2--2--2---
C--000-0-0-0--0--0--000-0-0-0--0--0---000-0-0-0--0--0---
G--000-0-0-0--0--0--000-0-0-0--0--0---000-0-0-0--0--0---
C-------------------------------------------------------



Pre-Chorus::



D--0-0-0-0---0-0-0--0-0-0-0---0-0-0----------------------------------
A--3-3-3-3---3-3-3--0-0-0-0---0-0-0----------------------------------
F--2-2-2-2---2-2-2--2-2-2-2---2-2-2---3-3-3-3-3-3-3--5-5-5-5-5-5-5---
C--0-0-0-0---0-0-0--2-2-2-2---2-2-2---3-3-3-3-3-3-3--5-5-5-5-5-5-5---
G--0-0-0-0---0-0-0--0-0-0-0---0-0-0---1-1-1-1-1-1-1--3-3-3-3-3-3-3---
C--------------------------------------------------------------------  (x2)



Chorus::



D----------------------------------------------------------------------------
A----------------------------------------------------------------------------
F--10-10-10-10-10-10-10-10-10-10-10-10-10-10--8--8-8--8-8-8--7--7-7--7-7-7---
C--10-10-10-10-10-10-10-10-10-10-10-10-10-10--8--8-8--8-8-8--7--7-7--7-7-7---
G--8--8--8--8--8--8--8--7--7--7--7--7--7--7---6--6-6--6-6-6--5--5-5--5-5-5---
C----------------------------------------------------------------------------

D------------------------------------------------------------------
A------------------------------------------------------------------
F--10-10-10-10-10-10-10-10-10-10-10-10-10-10--8--8-8--8-8-8--7-7---
C--10-10-10-10-10-10-10-10-10-10-10-10-10-10--8--8-8--8-8-8--7-7---
G--8--8--8--8--8--8--8--7--7--7--7--7--7--7---6--6-6--6-6-6--5-5---
C------------------------------------------------------------------



Verse::



D--0-0-000-0-0-0--0--0--000-0-0-0--0--0--000-0-0-0--0--0---000-0-0-0--0--0---
A--3-3-333-3-3-3--3--3--333-3-3-3--3--3--333-3-3-3--3--3---333-3-3-3--3--3---
F--2-2-222-2-2-2--2--2--222-2-2-2--2--2--222-2-2-2--2--2---222-2-2-2--2--2---
C--0-0-000-0-0-0--0--0--000-0-0-0--0--0--000-0-0-0--0--0---000-0-0-0--0--0---
G--0-0-000-0-0-0--0--0--000-0-0-0--0--0--000-0-0-0--0--0---000-0-0-0--0--0---
C----------------------------------------------------------------------------



D--000-0-0-0--0--0--000-0-0-0--0--0---000-0-0-0--0--0---
A--333-3-3-3--3--3--333-3-3-3--3--3---333-3-3-3--3--3---
F--222-2-2-2--2--2--222-2-2-2--2--2---222-2-2-2--2--2---
C--000-0-0-0--0--0--000-0-0-0--0--0---000-0-0-0--0--0---
G--000-0-0-0--0--0--000-0-0-0--0--0---000-0-0-0--0--0---
C-------------------------------------------------------



Pre-Chorus::



D--0-0-0-0---0-0-0--0-0-0-0---0-0-0----------------------------------
A--3-3-3-3---3-3-3--0-0-0-0---0-0-0----------------------------------
F--2-2-2-2---2-2-2--2-2-2-2---2-2-2---3-3-3-3-3-3-3--5-5-5-5-5-5-5---
C--0-0-0-0---0-0-0--2-2-2-2---2-2-2---3-3-3-3-3-3-3--5-5-5-5-5-5-5---
G--0-0-0-0---0-0-0--0-0-0-0---0-0-0---1-1-1-1-1-1-1--3-3-3-3-3-3-3---
C--------------------------------------------------------------------  (x2)



Chorus::



D----------------------------------------------------------------------------
A----------------------------------------------------------------------------
F--10-10-10-10-10-10-10-10-10-10-10-10-10-10--8--8-8--8-8-8--7--7-7--7-7-7---
C--10-10-10-10-10-10-10-10-10-10-10-10-10-10--8--8-8--8-8-8--7--7-7--7-7-7---
G--8--8--8--8--8--8--8--7--7--7--7--7--7--7---6--6-6--6-6-6--5--5-5--5-5-5---
C----------------------------------------------------------------------------

D------------------------------------------------------------------
A------------------------------------------------------------------
F--10-10-10-10-10-10-10-10-10-10-10-10-10-10--8--8-8--8-8-8--7-7---
C--10-10-10-10-10-10-10-10-10-10-10-10-10-10--8--8-8--8-8-8--7-7---
G--8--8--8--8--8--8--8--7--7--7--7--7--7--7---6--6-6--6-6-6--5-5---
C------------------------------------------------------------------



Verse::



D--0-0-000-0-0-0--0--0--000-0-0-0--0--0--000-0-0-0--0--0---000-0-0-0--0--0---
A--3-3-333-3-3-3--3--3--333-3-3-3--3--3--333-3-3-3--3--3---333-3-3-3--3--3---
F--2-2-222-2-2-2--2--2--222-2-2-2--2--2--222-2-2-2--2--2---222-2-2-2--2--2---
C--0-0-000-0-0-0--0--0--000-0-0-0--0--0--000-0-0-0--0--0---000-0-0-0--0--0---
G--0-0-000-0-0-0--0--0--000-0-0-0--0--0--000-0-0-0--0--0---000-0-0-0--0--0---
C----------------------------------------------------------------------------



D--000-0-0-0--0--0--000-0-0-0--0--0---000-0-0-0--0--0---
A--333-3-3-3--3--3--333-3-3-3--3--3---333-3-3-3--3--3---
F--222-2-2-2--2--2--222-2-2-2--2--2---222-2-2-2--2--2---
C--000-0-0-0--0--0--000-0-0-0--0--0---000-0-0-0--0--0---
G--000-0-0-0--0--0--000-0-0-0--0--0---000-0-0-0--0--0---
C-------------------------------------------------------



Chorus::



D----------------------------------------------------------------------------
A----------------------------------------------------------------------------
F--10-10-10-10-10-10-10-10-10-10-10-10-10-10--8--8-8--8-8-8--7--7-7--7-7-7---
C--10-10-10-10-10-10-10-10-10-10-10-10-10-10--8--8-8--8-8-8--7--7-7--7-7-7---
G--8--8--8--8--8--8--8--7--7--7--7--7--7--7---6--6-6--6-6-6--5--5-5--5-5-5---
C---------------------------------------------------------------------------- (x3)

D------------------------------------------------------------------
A------------------------------------------------------------------
F--10-10-10-10-10-10-10-10-10-10-10-10-10-10--8--8-8--8-8-8--7-7---
C--10-10-10-10-10-10-10-10-10-10-10-10-10-10--8--8-8--8-8-8--7-7---
G--8--8--8--8--8--8--8--7--7--7--7--7--7--7---6--6-6--6-6-6--5-5---
C------------------------------------------------------------------



Outro::



D--0-0-000-0-0-0--0--0--000-0-0-0--0--0--000-0-0-0--0--0---000-0-0-0--0--0---
A--3-3-333-3-3-3--3--3--333-3-3-3--3--3--333-3-3-3--3--3---333-3-3-3--3--3---
F--2-2-222-2-2-2--2--2--222-2-2-2--2--2--222-2-2-2--2--2---222-2-2-2--2--2---
C--0-0-000-0-0-0--0--0--000-0-0-0--0--0--000-0-0-0--0--0---000-0-0-0--0--0---
G--0-0-000-0-0-0--0--0--000-0-0-0--0--0--000-0-0-0--0--0---000-0-0-0--0--0---
C----------------------------------------------------------------------------



D--000-0-0-0--0--0--000-0-0-0--0--0---000-0-0-0--0--0---
A--333-3-3-3--3--3--333-3-3-3--3--3---333-3-3-3--3--3---
F--222-2-2-2--2--2--222-2-2-2--2--2---222-2-2-2--2--2---
C--000-0-0-0--0--0--000-0-0-0--0--0---000-0-0-0--0--0---
G--000-0-0-0--0--0--000-0-0-0--0--0---000-0-0-0--0--0---
C-------------------------------------------------------






3. Haunt Me


Intro::


D-----------------------------------------------------------------------
A-----------------------------------------------------------------------
F------------------------------------------------------7--7--6--6-6-6---
C--4---4--4-4-4-4---7--7--6--6-6-6---4---4--4-4-4-4----7--7--6--6-6-6---
G--4---4--4-4-4-4---7--7--6--6-6-6---4---4--4-4-4-4----5--5--4--4-4-4---
C--4---4--4-4-4-4---7--7--6--6-6-6---4---4--4-4-4-4--------------------- (x2)


Verse::


D-----------------------------------------------------------------------
A-----------------------------------------------------------------------
F------------------------------------------------------7--7--6--6-6-6---
C--4---4--4-4-4-4---7--7--6--6-6-6---4---4--4-4-4-4----7--7--6--6-6-6---
G--4---4--4-4-4-4---7--7--6--6-6-6---4---4--4-4-4-4----5--5--4--4-4-4---
C--4---4--4-4-4-4---7--7--6--6-6-6---4---4--4-4-4-4--------------------- (x4)


Pre-Chorus::


D--------------------------------------      ------------
A--------------------------------------      ------------
F--9--9--9-9-9-------------------------      -7-7--6-6---
C--9--9--9-9-9---4--4-4-4--4---4-4-4---      -7-7--6-6---
G--7--7--7-7-7---4--4-4-4--4---4-4-4---      -5-5--4-4---
C----------------4--4-4-4--4---4-4-4--- (x3) ------------


Chorus::


D-----------------------------------------------------------------------
A-----------------------------------------------------------------------
F------------------------------------------------------7--7--6--6-6-6---
C--4---4--4-4-4-4---7--7--6--6-6-6---4---4--4-4-4-4----7--7--6--6-6-6---
G--4---4--4-4-4-4---7--7--6--6-6-6---4---4--4-4-4-4----5--5--4--4-4-4---
C--4---4--4-4-4-4---7--7--6--6-6-6---4---4--4-4-4-4---------------------


D-----------------------------------------------------------------
A-----------------------------------------------------------------
F------------------------------------------------------7-7--6-6---
C--4---4--4-4-4-4---7--7--6--6-6-6---4---4--4-4-4-4----7-7--6-6---
G--4---4--4-4-4-4---7--7--6--6-6-6---4---4--4-4-4-4----5-5--4-4---
C--4---4--4-4-4-4---7--7--6--6-6-6---4---4--4-4-4-4---------------



Verse::


D-----------------------------------------------------------------------
A-----------------------------------------------------------------------
F------------------------------------------------------7--7--6--6-6-6---
C--4---4--4-4-4-4---7--7--6--6-6-6---4---4--4-4-4-4----7--7--6--6-6-6---
G--4---4--4-4-4-4---7--7--6--6-6-6---4---4--4-4-4-4----5--5--4--4-4-4---
C--4---4--4-4-4-4---7--7--6--6-6-6---4---4--4-4-4-4--------------------- (x4)


Pre-Chorus::


D--------------------------------------      ------------
A--------------------------------------      ------------
F--9--9--9-9-9-------------------------      -7-7--6-6---
C--9--9--9-9-9---4--4-4-4--4---4-4-4---      -7-7--6-6---
G--7--7--7-7-7---4--4-4-4--4---4-4-4---      -5-5--4-4---
C----------------4--4-4-4--4---4-4-4--- (x3) ------------


Chorus::


D-----------------------------------------------------------------------
A-----------------------------------------------------------------------
F------------------------------------------------------7--7--6--6-6-6---
C--4---4--4-4-4-4---7--7--6--6-6-6---4---4--4-4-4-4----7--7--6--6-6-6---
G--4---4--4-4-4-4---7--7--6--6-6-6---4---4--4-4-4-4----5--5--4--4-4-4---
C--4---4--4-4-4-4---7--7--6--6-6-6---4---4--4-4-4-4--------------------- (x3)


D-----------------------------------------------------------------
A-----------------------------------------------------------------
F------------------------------------------------------7-7--6-6---
C--4---4--4-4-4-4---7--7--6--6-6-6---4---4--4-4-4-4----7-7--6-6---
G--4---4--4-4-4-4---7--7--6--6-6-6---4---4--4-4-4-4----5-5--4-4---
C--4---4--4-4-4-4---7--7--6--6-6-6---4---4--4-4-4-4---------------



Verse::


D-----------------------------------------------------------------------
A-----------------------------------------------------------------------
F------------------------------------------------------7--7--6--6-6-6---
C--4---4--4-4-4-4---7--7--6--6-6-6---4---4--4-4-4-4----7--7--6--6-6-6---
G--4---4--4-4-4-4---7--7--6--6-6-6---4---4--4-4-4-4----5--5--4--4-4-4---
C--4---4--4-4-4-4---7--7--6--6-6-6---4---4--4-4-4-4--------------------- (x6)


Pre-Chorus::


D--------------------------------------      ------------
A--------------------------------------      ------------
F--9--9--9-9-9-------------------------      -7-7--6-6---
C--9--9--9-9-9---4--4-4-4--4---4-4-4---      -7-7--6-6---
G--7--7--7-7-7---4--4-4-4--4---4-4-4---      -5-5--4-4---
C----------------4--4-4-4--4---4-4-4--- (x3) ------------


Chorus::


D-----------------------------------------------------------------------
A-----------------------------------------------------------------------
F------------------------------------------------------7--7--6--6-6-6---
C--4---4--4-4-4-4---7--7--6--6-6-6---4---4--4-4-4-4----7--7--6--6-6-6---
G--4---4--4-4-4-4---7--7--6--6-6-6---4---4--4-4-4-4----5--5--4--4-4-4---
C--4---4--4-4-4-4---7--7--6--6-6-6---4---4--4-4-4-4--------------------- (x3)


D----------------------------------------------------------------------
A----------------------------------------------------------------------
F------------------------------------------------------7-7--6-6--------
C--4---4--4-4-4-4---7--7--6--6-6-6---4---4--4-4-4-4----7-7--6-6----4---
G--4---4--4-4-4-4---7--7--6--6-6-6---4---4--4-4-4-4----5-5--4-4----4---
C--4---4--4-4-4-4---7--7--6--6-6-6---4---4--4-4-4-4----------------4---








4. Nowhere


Intro::


Guitar 1::


D----------------------------------------------------
A--/3------/8--7---------/8---7---------/8---7-------
F------------------5--------------4--------------7---
C----------------------------------------------------
G----------------------------------------------------
C----------------------------------------------------


Guitar 2::


D----------------------------------------------------------------------------------------------------
A----------------------------------------------------------------------------------------------------
F---7-------------------------------5-------------------------------4--------------------------------
C---7-------------------------------5-------------------------------4--------------------------------
G---5-5-5-5-5-5-5-5-5-5-5-5-5-5-5-5-3-3-3-3-3-3-3-3-3-3-3-3-3-3-3-3-2-2-2-2-2-2-2-2-2-2-2-2-2-2-2-2--
C----------------------------------------------------------------------------------------------------

                             I pull

D------------------------------------
A------------------------------------
F---7--------------------------------
C---7--------------------------------
G---5-5-5-5-5-5-5-5-5-5-5-5-5-5-5-5--
C------------------------------------


Verse::

the switch,           all systems down

D----------------------------------------------------------------------------------------------------
A----------------------------------------------------------------------------------------------------
F---7-------------------------------5-------------------------------4--------------------------------
C---7-------------------------------5-------------------------------4--------------------------------
G---5-5-5-5-5-5-5-5-5-5-5-5-5-5-5-5-3-3-3-3-3-3-3-3-3-3-3-3-3-3-3-3-2-2-2-2-2-2-2-2-2-2-2-2-2-2-2-2--
C----------------------------------------------------------------------------------------------------

                        Reaching for

D------------------------------------
A------------------------------------
F---7--------------------------------
C---7--------------------------------
G---5-5-5-5-5-5-5-5-5-5-5-5-5-5-5-5--
C------------------------------------

  stars        you know you can't get far

D----------------------------------------------------------------------------------------------------
A----------------------------------------------------------------------------------------------------
F---7-------------------------------5-------------------------------4--------------------------------
C---7-------------------------------5-------------------------------4--------------------------------
G---5-5-5-5-5-5-5-5-5-5-5-5-5-5-5-5-3-3-3-3-3-3-3-3-3-3-3-3-3-3-3-3-2-2-2-2-2-2-2-2-2-2-2-2-2-2-2-2--
C----------------------------------------------------------------------------------------------------


D------------------------------------
A------------------------------------
F---7--------------------------------
C---7--------------------------------
G---5-5-5-5-5-5-5-5-5-5-5-5-5-5-5-5--
C------------------------------------



Pre-Chorus::

  Bite the hand that's...

D-------------------------------------------------------------
A-----------2--2-2-----------------------2--2-2---------------
F---4--4-4--2--2-2---------------4--4-4--2--2-2---------------
C---4--4-4--0--0-0--5--5-5--5-5--4--4-4--0--0-0--5--5-5--5-5--
G---2--2-2----------5--5-5--5-5--2--2-2----------5--5-5--5-5--
C-------------------5--5-5--5-5------------------5--5-5--5-5--

D------------------------------------------------------------------
A-----------2--2-2-------------------------------------------------
F---4--4-4--2--2-2-------------------------------------------------
C---4--4-4--0--0-0--5--5-5--5-5--7--7-7-7-7-7-7-7-7-7-7-7-7-7-7-7--
G---2--2-2----------5--5-5--5-5--7--7-7-7-7-7-7-7-7-7-7-7-7-7-7-7--
C-------------------5--5-5--5-5--7--7-7-7-7-7-7-7-7-7-7-7-7-7-7-7--



Chorus::


D------------------------------------------------------------------------------
A------------------------------------------------------------------------------
F---7---7--7--7--7--7--7--7--7--7--7--7---5---5--5--5--5--5--5--5--5--5--5--5--
C---7---7--7--7--7--7--7--7--7--7--7--7---5---5--5--5--5--5--5--5--5--5--5--5--
G---5---5--5--5--5--5--5--5--5--5--5--5---3---3--3--3--3--3--3--3--3--3--3--3--
C------------------------------------------------------------------------------


D------------------------------------------------------------------------------
A------------------------------------------------------------------------------
F---4---4--4--4--4--4--4--4--4--4--4--4---7---7--7--7--7--7--7--7--7--7--7--7--
C---4---4--4--4--4--4--4--4--4--4--4--4---7---7--7--7--7--7--7--7--7--7--7--7--
G---2---2--2--2--2--2--2--2--2--2--2--2---5---5--5--5--5--5--5--5--5--5--5--5--
C------------------------------------------------------------------------------ (x2)


Verse::

  You,            in your suit and tie

D---------------------------------------------------------------------------------------------------
A---------------------------------------------------------------------------------------------------
F---7-------------------------------5-------------------------------4-------------------------------
C---7-------------------------------5-------------------------------4-------------------------------
G---5-5-5-5-5-5-5-5-5-5-5-5-5-5-5-5-3-3-3-3-3-3-3-3-3-3-3-3-3-3-3-3-2-2-2-2-2-2-2-2-2-2-2-2-2-2-2-2-
C---------------------------------------------------------------------------------------------------



D-----------------------------------
A-----------------------------------
F---7-------------------------------
C---7-------------------------------
G---5-5-5-5-5-5-5-5-5-5-5-5-5-5-5-5-
C----------------------------------- (x2)


Pre-Chorus:

  Bite the hand that's...

D-------------------------------------------------------------
A-----------2--2-2-----------------------2--2-2---------------
F---4--4-4--2--2-2---------------4--4-4--2--2-2---------------
C---4--4-4--0--0-0--5--5-5--5-5--4--4-4--0--0-0--5--5-5--5-5--
G---2--2-2----------5--5-5--5-5--2--2-2----------5--5-5--5-5--
C-------------------5--5-5--5-5------------------5--5-5--5-5--

D------------------------------------------------------------------
A-----------2--2-2-------------------------------------------------
F---4--4-4--2--2-2-------------------------------------------------
C---4--4-4--0--0-0--5--5-5--5-5--7--7-7-7-7-7-7-7-7-7-7-7-7-7-7-7--
G---2--2-2----------5--5-5--5-5--7--7-7-7-7-7-7-7-7-7-7-7-7-7-7-7--
C-------------------5--5-5--5-5--7--7-7-7-7-7-7-7-7-7-7-7-7-7-7-7--


Chorus::


D------------------------------------------------------------------------------
A------------------------------------------------------------------------------
F---7---7--7--7--7--7--7--7--7--7--7--7---5---5--5--5--5--5--5--5--5--5--5--5--
C---7---7--7--7--7--7--7--7--7--7--7--7---5---5--5--5--5--5--5--5--5--5--5--5--
G---5---5--5--5--5--5--5--5--5--5--5--5---3---3--3--3--3--3--3--3--3--3--3--3--
C------------------------------------------------------------------------------


D------------------------------------------------------------------------------
A------------------------------------------------------------------------------
F---4---4--4--4--4--4--4--4--4--4--4--4---7---7--7--7--7--7--7--7--7--7--7--7--
C---4---4--4--4--4--4--4--4--4--4--4--4---7---7--7--7--7--7--7--7--7--7--7--7--
G---2---2--2--2--2--2--2--2--2--2--2--2---5---5--5--5--5--5--5--5--5--5--5--5--
C------------------------------------------------------------------------------ (x2)


Bridge::


D------------------------------------------------------------------------------
A------------------------------------------------------------------------------
F---7---7--7--7--7--7--7--7--7--7--7--7---5---5--5--5--5--5--5--5--5--5--5--5--
C---7---7--7--7--7--7--7--7--7--7--7--7---5---5--5--5--5--5--5--5--5--5--5--5--
G---5---5--5--5--5--5--5--5--5--5--5--5---3---3--3--3--3--3--3--3--3--3--3--3--
C------------------------------------------------------------------------------


D------------------------------------------------------------------------------
A------------------------------------------------------------------------------
F---4---4--4--4--4--4--4--4--4--4--4--4---7---7--7--7--7--7--7--7--7--7--7--7--
C---4---4--4--4--4--4--4--4--4--4--4--4---7---7--7--7--7--7--7--7--7--7--7--7--
G---2---2--2--2--2--2--2--2--2--2--2--2---5---5--5--5--5--5--5--5--5--5--5--5--
C------------------------------------------------------------------------------


D----------------------------------------------------------------------------------------------------
A----------------------------------------------------------------------------------------------------
F---7-------------------------------5-------------------------------4--------------------------------
C---7-------------------------------5-------------------------------4--------------------------------
G---5-5-5-5-5-5-5-5-5-5-5-5-5-5-5-5-3-3-3-3-3-3-3-3-3-3-3-3-3-3-3-3-2-2-2-2-2-2-2-2-2-2-2-2-2-2-2-2--
C----------------------------------------------------------------------------------------------------


D------------------------------------
A------------------------------------
F---7--------------------------------
C---7--------------------------------
G---5-5-5-5-5-5-5-5-5-5-5-5-5-5-5-5--
C------------------------------------


Pre-Chorus::


  Bite the hand that's...

D-------------------------------------------------------------
A-----------2--2-2-----------------------2--2-2---------------
F---4--4-4--2--2-2---------------4--4-4--2--2-2---------------
C---4--4-4--0--0-0--5--5-5--5-5--4--4-4--0--0-0--5--5-5--5-5--
G---2--2-2----------5--5-5--5-5--2--2-2----------5--5-5--5-5--
C-------------------5--5-5--5-5------------------5--5-5--5-5--

D-------------------------------------------------------------------------------------------------
A-----------2--2-2--------------------------------------------------------------------------------
F---4--4-4--2--2-2--------------------------------------------------------------------------------
C---4--4-4--0--0-0--5--5-5--5-5--7--7-7-7-7-7-7-7-7-7-7-7-7-7-7-7--7-7-7-7-7-7-7-7-7-7-7-7-7-7-7--
G---2--2-2----------5--5-5--5-5--7--7-7-7-7-7-7-7-7-7-7-7-7-7-7-7--7-7-7-7-7-7-7-7-7-7-7-7-7-7-7--
C-------------------5--5-5--5-5--7--7-7-7-7-7-7-7-7-7-7-7-7-7-7-7--7-7-7-7-7-7-7-7-7-7-7-7-7-7-7--


Chorus::


D------------------------------------------------------------------------------
A------------------------------------------------------------------------------
F---7---7--7--7--7--7--7--7--7--7--7--7---5---5--5--5--5--5--5--5--5--5--5--5--
C---7---7--7--7--7--7--7--7--7--7--7--7---5---5--5--5--5--5--5--5--5--5--5--5--
G---5---5--5--5--5--5--5--5--5--5--5--5---3---3--3--3--3--3--3--3--3--3--3--3--
C------------------------------------------------------------------------------


D------------------------------------------------------------------------------
A------------------------------------------------------------------------------
F---4---4--4--4--4--4--4--4--4--4--4--4---7---7--7--7--7--7--7--7--7--7--7--7--
C---4---4--4--4--4--4--4--4--4--4--4--4---7---7--7--7--7--7--7--7--7--7--7--7--
G---2---2--2--2--2--2--2--2--2--2--2--2---5---5--5--5--5--5--5--5--5--5--5--5--
C------------------------------------------------------------------------------ (x2)


Outro::


D----------------------------------------------------------------------------------------------------
A----------------------------------------------------------------------------------------------------
F---7-------------------------------5-------------------------------4--------------------------------
C---7-------------------------------5-------------------------------4--------------------------------
G---5-5-5-5-5-5-5-5-5-5-5-5-5-5-5-5-3-3-3-3-3-3-3-3-3-3-3-3-3-3-3-3-2-2-2-2-2-2-2-2-2-2-2-2-2-2-2-2--
C----------------------------------------------------------------------------------------------------



D------------------------------------
A------------------------------------
F---7--------------------------------
C---7--------------------------------
G---5-5-5-5-5-5-5-5-5-5-5-5-5-5-5-5-- (x3)







5. Morgue Than Words



Intro/Bridge::


D--------------------------------------------------------------------------------
A--------------------------------------------------------------------------------
F---5-5-5--5---5--5-5-5--5---5--5-5-5--5---5--5-5-5--5---5--5-5-5--5---5--5-5-5--
C---5-5-5--5---5--5-5-5--5---5--5-5-5--5---5--5-5-5--5---5--5-5-5--5---5--5-5-5--
G---3-3-3--3---3--3-3-3--3---3--3-3-3--3---3--3-3-3--3---3--3-3-3--3---3--3-3-3--
C--------------------------------------------------------------------------------


D----------------------------------
A----------------------------------
F---5---5--5-5-5--5---5--5-5-5--5--
C---5---5--5-5-5--5---5--5-5-5--5--
G---3---3--3-3-3--3---3--3-3-3--3--
C----------------------------------


Verse::


D-------------------------------
A-------------------------------
F---5---5--5-5-5--5---5--5-5-5--
C---5---5--5-5-5--5---5--5-5-5--
G---3---3--3-3-3--3---3--3-3-3--
C-------------------------------

D---------------------------------------------------------------------------------------
A---------------------------------------------------------------------------------------
F---------------------------------------------------------------------------------------
C---5---5--5-5-5--5---5--5-5-5--7---7--7-7-7--7---7--7-7-7--3---3--3-3-3--3---3--3-3-3--
G---5---5--5-5-5--5---5--5-5-5--7---7--7-7-7--7---7--7-7-7--3---3--3-3-3--3---3--3-3-3--
C---5---5--5-5-5--5---5--5-5-5--7---7--7-7-7--7---7--7-7-7--3---3--3-3-3--3---3--3-3-3-- (x2)


Pre-Chorus::


D-------------------------------
A-------------------------------
F---5---5--5-5-5--5---5--5-5-5--
C---5---5--5-5-5--5---5--5-5-5--
G---3---3--3-3-3--3---3--3-3-3--
C-------------------------------

D---------------------------------------------------------------------------------------
A---------------------------------------------------------------------------------------
F---------------------------------------------------------------------------------------
C---5---5--5-5-5--5---5--5-5-5--7---7--7-7-7--7---7--7-7-7--3---3--3-3-3--3---3--3-3-3--
G---5---5--5-5-5--5---5--5-5-5--7---7--7-7-7--7---7--7-7-7--3---3--3-3-3--3---3--3-3-3--
C---5---5--5-5-5--5---5--5-5-5--7---7--7-7-7--7---7--7-7-7--3---3--3-3-3--3---3--3-3-3-- (x2)


Chorus::


D-------------------------------
A-------------------------------
F---5---5--5-5-5--5---5--5-5-5--
C---5---5--5-5-5--5---5--5-5-5--
G---3---3--3-3-3--3---3--3-3-3--
C-------------------------------

D---------------------------------------------------------------------------------------
A---------------------------------------------------------------------------------------
F---------------------------------------------------------------------------------------
C---5---5--5-5-5--5---5--5-5-5--7---7--7-7-7--7---7--7-7-7--3---3--3-3-3--3---3--3-3-3--
G---5---5--5-5-5--5---5--5-5-5--7---7--7-7-7--7---7--7-7-7--3---3--3-3-3--3---3--3-3-3--
C---5---5--5-5-5--5---5--5-5-5--7---7--7-7-7--7---7--7-7-7--3---3--3-3-3--3---3--3-3-3-- (x2)







6. Curse of Me



Intro::


E-----------------------------------------------------------------------
B--9h10--10--10-10---9h10--10--10-10---9h10--10----10/12--10/9--7---7---
G-----------------------------------------------------------------------
D-----------------------------------------------------------------------
A-----------------------------------------------------------------------
D-----------------------------------------------------------------------


E------------------------------------------------------------------
B--9h10--10--10-10---9h10--10--10-10---9h10--10---10/12--10/9--7---
G------------------------------------------------------------------
D------------------------------------------------------------------
A------------------------------------------------------------------
D------------------------------------------------------------------


Verse::


E------------------0--0-0--0-0-0-------------------0--0-0--0-0-0---
B------------------0--0-0--0-0-0-------------------3--3-3--3-3-3---
G------------------2--2-2--2-2-2-------------------2--2-2--2-2-2---
D--4--4-4--4-4-4---2--2-2--2-2-2---2--2-2--2-2-2---0--0-0--0-0-0---
A--4--4-4--4-4-4---0--0-0--0-0-0---2--2-2--2-2-2---0--0-0--0-0-0---
D--4--4-4--4-4-4-------------------2--2-2--2-2-2------------------- (x4)


Pre-Chorus::


E--0--0-0--0-0-0---0--0-0--0-0-0-----------------------------------
B--3--3-3--3-3-3---3--3-3--3-3-3-----------------------------------
G--2--2-2--2-2-2---2--2-2--2-2-2-----------------------------------
D--0--0-0--0-0-0---0--0-0--0-0-0---4--4-4--4-4-4---4--4-4--4-4-4---
A--0--0-0--0-0-0---0--0-0--0-0-0---4--4-4--4-4-4---4--4-4--4-4-4---
D----------------------------------4--4-4--4-4-4---4--4-4--4-4-4---


E--0--0-0--0-0-0---0--0-0--0-0-0-------
B--3--3-3--3-3-3---3--3-3--3-3-3-------
G--2--2-2--2-2-2---2--2-2--2-2-2---6---
D--0--0-0--0-0-0---0--0-0--0-0-0---6---
A--0--0-0--0-0-0---0--0-0--0-0-0---4---
D--------------------------------------


Chorus::


E-----------------------------------------------------------------------
B--9h10--10--10-10---9h10--10--10-10---9h10--10----10/12--10/9--7---7---
G-----------------------------------------------------------------------
D-----------------------------------------------------------------------
A-----------------------------------------------------------------------
D-----------------------------------------------------------------------


E------------------------------------------------------------------
B--9h10--10--10-10---9h10--10--10-10---9h10--10---10/12--10/9--7---
G------------------------------------------------------------------
D------------------------------------------------------------------
A------------------------------------------------------------------
D------------------------------------------------------------------


Verse::


E------------------0--0-0--0-0-0-------------------0--0-0--0-0-0---
B------------------0--0-0--0-0-0-------------------3--3-3--3-3-3---
G------------------2--2-2--2-2-2-------------------2--2-2--2-2-2---
D--4--4-4--4-4-4---2--2-2--2-2-2---2--2-2--2-2-2---0--0-0--0-0-0---
A--4--4-4--4-4-4---0--0-0--0-0-0---2--2-2--2-2-2---0--0-0--0-0-0---
D--4--4-4--4-4-4-------------------2--2-2--2-2-2------------------- (x4)


Pre-Chorus::


E--0--0-0--0-0-0---0--0-0--0-0-0-----------------------------------
B--3--3-3--3-3-3---3--3-3--3-3-3-----------------------------------
G--2--2-2--2-2-2---2--2-2--2-2-2-----------------------------------
D--0--0-0--0-0-0---0--0-0--0-0-0---4--4-4--4-4-4---4--4-4--4-4-4---
A--0--0-0--0-0-0---0--0-0--0-0-0---4--4-4--4-4-4---4--4-4--4-4-4---
D----------------------------------4--4-4--4-4-4---4--4-4--4-4-4---


E--0--0-0--0-0-0---0--0-0--0-0-0-------
B--3--3-3--3-3-3---3--3-3--3-3-3-------
G--2--2-2--2-2-2---2--2-2--2-2-2---6---
D--0--0-0--0-0-0---0--0-0--0-0-0---6---
A--0--0-0--0-0-0---0--0-0--0-0-0---4---
D--------------------------------------


Chorus::


E-----------------------------------------------------------------------
B--9h10--10--10-10---9h10--10--10-10---9h10--10----10/12--10/9--7---7---
G-----------------------------------------------------------------------
D-----------------------------------------------------------------------
A-----------------------------------------------------------------------
D-----------------------------------------------------------------------


E------------------------------------------------------------------
B--9h10--10--10-10---9h10--10--10-10---9h10--10---10/12--10/9--7---
G------------------------------------------------------------------
D------------------------------------------------------------------
A------------------------------------------------------------------
D------------------------------------------------------------------ (x2)


Bridge::


E----------------------------------------------------------------------------------
B----------------------0-0-0--0-0-0--0-0-----------------------3-3-3--3-3-3--3-3---
G----------------------2-2-2--2-2-2--2-2-----------------------2-2-2--2-2-2--2-2---
D--4-4-4--4-4-4--4-4---2-2-2--2-2-2--2-2---2-2-2--2-2-2--2-2---0-0-0--0-0-0--0-0---
A--4-4-4--4-4-4--4-4---0-0-0--0-0-0--0-0---2-2-2--2-2-2--2-2---0-0-0--0-0-0--0-0---
D--4-4-4--4-4-4--4-4-----------------------2-2-2--2-2-2--2-2-----------------------
  .  . .  . . .  . .   . . .  . . .  . .   . . .  . . .  . .   . . .  . . .  . .

E--------------------------------------------------------------0---
B----------------------0-0-0--0-0-0--0-0-----------------------3---
G----------------------2-2-2--2-2-2--2-2-----------------------2---
D--4-4-4--4-4-4--4-4---2-2-2--2-2-2--2-2---2-2-2--2-2-2--2-2---0---
A--4-4-4--4-4-4--4-4---0-0-0--0-0-0--0-0---2-2-2--2-2-2--2-2---0---
D--4-4-4--4-4-4--4-4-----------------------2-2-2--2-2-2--2-2-------
  .  . .  . . .  . .   . . .  . . .  . .   . . .  . . .  . .



Chorus::


E-----------------------------------------------------------------------
B--9h10--10--10-10---9h10--10--10-10---9h10--10----10/12--10/9--7---7---
G-----------------------------------------------------------------------
D-----------------------------------------------------------------------
A-----------------------------------------------------------------------
D-----------------------------------------------------------------------


E------------------------------------------------------------------
B--9h10--10--10-10---9h10--10--10-10---9h10--10---10/12--10/9--7---
G------------------------------------------------------------------
D------------------------------------------------------------------
A------------------------------------------------------------------
D------------------------------------------------------------------ (x2)


Outro::

E---------0---------------0---------------0---------------0-----------
B---------0---------------3---------------0---------------3-----------
G---------2---------------2---------------2---------------2-----------
D--4------2-------2-------0-------4-------2-------2-------0-------4---
A--4------0-------2-------0-------4-------0-------2-------0-------4---
D--4--------------2---------------4---------------2---------------4---








7. Welcome To The Strange



Intro::


D----------------------------------------------------------------
A----------------------------------------------------------------
F----------------------------------------------------------------
C--4-4-4-4-4-4-4-4-4-4-4-4-6-6-9-9-8-8-8-8-8-8-8-8-8-8-8-8-8-8---
G--4-4-4-4-4-4-4-4-4-4-4-4-6-6-9-9-8-8-8-8-8-8-8-8-8-8-8-8-8-8---
C--4-4-4-4-4-4-4-4-4-4-4-4-6-6-9-9-8-8-8-8-8-8-8-8-8-8-8-8-8-8--- (x2)


Verse::


D----------------------------------------------------------------
A----------------------------------------------------------------
F----------------------------------------------------------------
C--4-4-4-4-4-4-4-4-4-4-4-4-6-6-9-9-8-8-8-8-8-8-8-8-8-8-8-8-8-8---
G--4-4-4-4-4-4-4-4-4-4-4-4-6-6-9-9-8-8-8-8-8-8-8-8-8-8-8-8-8-8---
C--4-4-4-4-4-4-4-4-4-4-4-4-6-6-9-9-8-8-8-8-8-8-8-8-8-8-8-8-8-8--- (x4)


Chorus::


D--------------------------
A--------------------------
F--4-4-4---4-4-------------
C--4-4-4---4-4-6---6-6-4---
G--2-2-2---2-2-6---6-6-4---
C--------------6---6-6-4--- (x2)


Verse::


D----------------------------------------------------------------
A----------------------------------------------------------------
F----------------------------------------------------------------
C--4-4-4-4-4-4-4-4-4-4-4-4-6-6-9-9-8-8-8-8-8-8-8-8-8-8-8-8-8-8---
G--4-4-4-4-4-4-4-4-4-4-4-4-6-6-9-9-8-8-8-8-8-8-8-8-8-8-8-8-8-8---
C--4-4-4-4-4-4-4-4-4-4-4-4-6-6-9-9-8-8-8-8-8-8-8-8-8-8-8-8-8-8--- (x2)


Chorus::


D--------------------------
A--------------------------
F--4-4-4---4-4-------------
C--4-4-4---4-4-6---6-6-4---
G--2-2-2---2-2-6---6-6-4---
C--------------6---6-6-4--- (x2)

D--------------------------
A--------------------------
F--4-4-4-------------------
C--4-4-4---9--5----5-5-5---
G--2-2-2---9--5----5-5-5---
C----------9--5----5-5-5---


Solo::

D----------------------------------------------------------------------------------------
A----------------------------------------------------------------------------------------
F--11-11-10---11-11-10---11-11-10---13-13-16-16-15-15-13--15-15-13--15-15--16---15---13--
C----------------------------------------------------------------------------------------
G----------------------------------------------------------------------------------------
C----------------------------------------------------------------------------------------

D-----------------------------------------------------------------------------------------
A-----------------------------------------------------------------------------------------
F--11-11-10---11-11-10---11-11-10---13-13-16-16-15-15-13--15-15-13--15-15--16---15---13---
C-----------------------------------------------------------------------------------------
G-----------------------------------------------------------------------------------------
C-----------------------------------------------------------------------------------------


Chorus::


D--------------------------
A--------------------------
F--4-4-4---4-4-------------
C--4-4-4---4-4-6---6-6-4---
G--2-2-2---2-2-6---6-6-4---
C--------------6---6-6-4--- (x2)


Verse::


D----------------------------------------------------------------
A----------------------------------------------------------------
F----------------------------------------------------------------
C--4-4-4-4-4-4-4-4-4-4-4-4-6-6-9-9-8-8-8-8-8-8-8-8-8-8-8-8-8-8---
G--4-4-4-4-4-4-4-4-4-4-4-4-6-6-9-9-8-8-8-8-8-8-8-8-8-8-8-8-8-8---
C--4-4-4-4-4-4-4-4-4-4-4-4-6-6-9-9-8-8-8-8-8-8-8-8-8-8-8-8-8-8--- (x2)


Chorus::


D--------------------------
A--------------------------
F--4-4-4---4-4-------------
C--4-4-4---4-4-6---6-6-4---
G--2-2-2---2-2-6---6-6-4---
C--------------6---6-6-4--- (x2)

D--------------------------
A--------------------------
F--4-4-4-------------------
C--4-4-4---9--5----5-5-5---
G--2-2-2---9--5----5-5-5---
C----------9--5----5-5-5---

D--------------------------------------------------------------------------------------
A--------------------------------------------------------------------------------------
F-------4-4-------4-4-------4-4-------4--------------4-4-------4-4---------------------
C--4-4--4-4--4-4--4-4--4-4--4-4--4-4--4---------4-4--4-4--4-4--4-4---4-4-4-4-4-4-4-4---
G--4-4--2-2--4-4--2-2--4-4--2-2--4-4--2---------4-4--2-2--4-4--2-2---4-4-4-4-4-4-4-4---
C--4-4-------4-4-------4-4-------4-4------------4-4-------4-4--------4-4-4-4-4-4-4-4---
                                                                     . . . . . . . .


Outro::


D----------------------------------------------------------------
A----------------------------------------------------------------
F----------------------------------------------------------------
C--4-4-4-4-4-4-4-4-4-4-4-4-6-6-9-9-8-8-8-8-8-8-8-8-8-8-8-8-8-8---
G--4-4-4-4-4-4-4-4-4-4-4-4-6-6-9-9-8-8-8-8-8-8-8-8-8-8-8-8-8-8---
C--4-4-4-4-4-4-4-4-4-4-4-4-6-6-9-9-8-8-8-8-8-8-8-8-8-8-8-8-8-8--- (x4)






8. Scary Song



Intro::


D---------------------------------------------------------------
A---------------------------------------------------------------
F---------------------------------------------------------------
C---x--x-x--x--x-x--x-x--4--4-4-4--7--7-7-7--6/7\6--4---4-4-4---
G---x--x-x--x--x-x--x-x--4--4-4-4--7--7-7-7--6/7\6--4---4-4-4---
C---x--x-x--x--x-x--x-x--4--4-4-4--7--7-7-7--6/7\6--4---4-4-4---

D------------------------------------------
A------------------------------------------
F------------------------------------------
C---4--4-4-4--7--7-7-7--6/7\6--4---4-4-4---
G---4--4-4-4--7--7-7-7--6/7\6--4---4-4-4---
C---4--4-4-4--7--7-7-7--6/7\6--4---4-4-4---



D----7----8-8-8----5----2/---
A----------------------------
F----------------------------
C----------------------------
G----------------------------
C----------------------------


Verse::


D----------------------------------------------------------------------------------
A----------------------------------------------------------------------------------
F----------------------------------------------------------------------------------
C---4--4-4-4--5--5-5-5--6--6-6-6--7-7-6-6--4--4-4-4--5--5-5-5--6--6-6-6--7-7-6-6---
G---4--4-4-4--5--5-5-5--6--6-6-6--7-7-6-6--4--4-4-4--5--5-5-5--6--6-6-6--7-7-6-6---
C---4--4-4-4--5--5-5-5--6--6-6-6--7-7-6-6--4--4-4-4--5--5-5-5--6--6-6-6--7-7-6-6---
    .  . . .  .  . . .  .  . . .  . . . .  .  . . .  .  . . .  .  . . .  . . . .

D-----------------------------------------------------------------------
A-----------------------------------------------------------------------
F-----------------------------------------------------------------------
C---4--4-4-4--5--5-5-5--6--6-6-6--7-7-6-6--4--x-x--x-x--4-4--x-x--x-x---
G---4--4-4-4--5--5-5-5--6--6-6-6--7-7-6-6--4--x-x--x-x--4-4--x-x--x-x---
C---4--4-4-4--5--5-5-5--6--6-6-6--7-7-6-6--4--x-x--x-x--4-4--x-x--x-x--- (x2)
    .  . . .  .  . . .  .  . . .  . . . .  .



Chorus::



D---------------------------------------------------------------
A---------------------------------------------------------------
F---------------------------------------------------------------
C---x--x-x--x--x-x--x-x--4--4-4-4--7--7-7-7--6/7\6--4---4-4-4---
G---x--x-x--x--x-x--x-x--4--4-4-4--7--7-7-7--6/7\6--4---4-4-4---
C---x--x-x--x--x-x--x-x--4--4-4-4--7--7-7-7--6/7\6--4---4-4-4---

D------------------------------------------
A------------------------------------------
F------------------------------------------
C---4--4-4-4--7--7-7-7--6/7\6--4---4-4-4---
G---4--4-4-4--7--7-7-7--6/7\6--4---4-4-4---
C---4--4-4-4--7--7-7-7--6/7\6--4---4-4-4--- (3x)



Verse::



D----------------------------------------------------------------------------------
A----------------------------------------------------------------------------------
F----------------------------------------------------------------------------------
C---4--4-4-4--5--5-5-5--6--6-6-6--7-7-6-6--4--4-4-4--5--5-5-5--6--6-6-6--7-7-6-6---
G---4--4-4-4--5--5-5-5--6--6-6-6--7-7-6-6--4--4-4-4--5--5-5-5--6--6-6-6--7-7-6-6---
C---4--4-4-4--5--5-5-5--6--6-6-6--7-7-6-6--4--4-4-4--5--5-5-5--6--6-6-6--7-7-6-6---
    .  . . .  .  . . .  .  . . .  . . . .  .  . . .  .  . . .  .  . . .  . . . .

D-----------------------------------------------------------------------
A-----------------------------------------------------------------------
F-----------------------------------------------------------------------
C---4--4-4-4--5--5-5-5--6--6-6-6--7-7-6-6--4--x-x--x-x--4-4--x-x--x-x---
G---4--4-4-4--5--5-5-5--6--6-6-6--7-7-6-6--4--x-x--x-x--4-4--x-x--x-x---
C---4--4-4-4--5--5-5-5--6--6-6-6--7-7-6-6--4--x-x--x-x--4-4--x-x--x-x--- (x2)
    .  . . .  .  . . .  .  . . .  . . . .  .



Chorus::



D---------------------------------------------------------------
A---------------------------------------------------------------
F---------------------------------------------------------------
C---x--x-x--x--x-x--x-x--4--4-4-4--7--7-7-7--6/7\6--4---4-4-4---
G---x--x-x--x--x-x--x-x--4--4-4-4--7--7-7-7--6/7\6--4---4-4-4---
C---x--x-x--x--x-x--x-x--4--4-4-4--7--7-7-7--6/7\6--4---4-4-4---

D-------------------------------------------
A-------------------------------------------
F-------------------------------------------
C---4--4-4-4--7--7-7-7--6/7\6--4---4-4-4----
G---4--4-4-4--7--7-7-7--6/7\6--4---4-4-4----
C---4--4-4-4--7--7-7-7--6/7\6--4---4-4-4---- (3x)



Verse 2::



D----------------------------------------------------------------------------------
A----------------------------------------------------------------------------------
F----------------------------------------------------------------------------------
C---4--4-4-4--5--5-5-5--6--6-6-6--7-7-6-6--4--4-4-4--5--5-5-5--6--6-6-6--7-7-6-6---
G---4--4-4-4--5--5-5-5--6--6-6-6--7-7-6-6--4--4-4-4--5--5-5-5--6--6-6-6--7-7-6-6---
C---4--4-4-4--5--5-5-5--6--6-6-6--7-7-6-6--4--4-4-4--5--5-5-5--6--6-6-6--7-7-6-6---
    .  . . .  .  . . .  .  . . .  . . . .  .  . . .  .  . . .  .  . . .  . . . .

D-----------------------------------------------------------------------
A-----------------------------------------------------------------------
F-----------------------------------------------------------------------
C---4--4-4-4--5--5-5-5--6--6-6-6--7-7-6-6--4--x-x--x-x--4-4--x-x--x-x---
G---4--4-4-4--5--5-5-5--6--6-6-6--7-7-6-6--4--x-x--x-x--4-4--x-x--x-x---
C---4--4-4-4--5--5-5-5--6--6-6-6--7-7-6-6--4--x-x--x-x--4-4--x-x--x-x---
    .  . . .  .  . . .  .  . . .  . . . .  .



Chorus::



D---------------------------------------------------------------
A---------------------------------------------------------------
F---------------------------------------------------------------
C---x--x-x--x--x-x--x-x--4--4-4-4--7--7-7-7--6/7\6--4---4-4-4---
G---x--x-x--x--x-x--x-x--4--4-4-4--7--7-7-7--6/7\6--4---4-4-4---
C---x--x-x--x--x-x--x-x--4--4-4-4--7--7-7-7--6/7\6--4---4-4-4---

D------------------------------------------
A------------------------------------------
F------------------------------------------
C---4--4-4-4--7--7-7-7--6/7\6--4---4-4-4---
G---4--4-4-4--7--7-7-7--6/7\6--4---4-4-4---
C---4--4-4-4--7--7-7-7--6/7\6--4---4-4-4--- (6x)

D----------------------------------
A----------------------------------
F----------------------------------
C---4--4-4-4--7--7-7-7--6/7\6--4---
G---4--4-4-4--7--7-7-7--6/7\6--4---
C---4--4-4-4--7--7-7-7--6/7\6--4---








9. We All Die


Intro::


D-------------------------------------------------------------------------
A-------------------------------------------------------------------------
F--------------------5--5--5-5-5--2--2--2-2-2-----------------------------
C---x-x-x-x-x-x-x-x--5--5--5-5-5--2--2--2-2-2--3--3--3-3-3--5--5--5-5-5---
G---x-x-x-x-x-x-x-x--3--3--3-3-3--0--0--0-0-0--3--3--3-3-3--5--5--5-5-5---
C---x-x-x-x-x-x-x-x----------------------------3--3--3-3-3--5--5--5-5-5---


D--------------------------------------------------------
A--------------------------------------------------------
F---5--5--5-5-5--2--2--2-2-2-----------------------------
C---5--5--5-5-5--2--2--2-2-2--3--3--3-3-3--5--5--5-5-5---
G---3--3--3-3-3--0--0--0-0-0--3--3--3-3-3--5--5--5-5-5---
C-----------------------------3--3--3-3-3--5--5--5-5-5--- (x2)


D---------------------------------------------------------------
A---------------------------------------------------------------
F---5--5--5-5-5--2--2--2-2-2------------------------------------
C---5--5--5-5-5--2--2--2-2-2--3--3--3-3-3--5--x-x-x-x-x-x-x-x---
G---3--3--3-3-3--0--0--0-0-0--3--3--3-3-3--5--x-x-x-x-x-x-x-x---
C-----------------------------3--3--3-3-3--5--x-x-x-x-x-x-x-x---




Verse::

   Do you think....

D--------------------------------------------------------
A--------------------------------------------------------
F---5--5--5-5-5--2--2--2-2-2-----------------------------
C---5--5--5-5-5--2--2--2-2-2--3--3--3-3-3--5--5--5-5-5---
G---3--3--3-3-3--0--0--0-0-0--3--3--3-3-3--5--5--5-5-5---
C-----------------------------3--3--3-3-3--5--5--5-5-5--- (x4)


Pre-Chorus::


D--------------------------------------------------------
A--------------------------------------------------------
F--------------------------------------------------------
C---3--3--3-3-3--3--3--3-3-3--5--5--5-5-5--5--5--5-5-5---
G---3--3--3-3-3--3--3--3-3-3--5--5--5-5-5--5--5--5-5-5---
C---3--3--3-3-3--3--3--3-3-3--5--5--5-5-5--5--5--5-5-5--- (x3)


D--------------------------------------------------------------------
A--------------------------------------------------------------------
F-------------------------------------------------------2--2--4--4---
C---3--3--3-3-3--3--3--3-3-3--5--5--5-5-5--5--5--5-5-5--2--2--4--4---
G---3--3--3-3-3--3--3--3-3-3--5--5--5-5-5--5--5--5-5-5--0--0--2--2---
C---3--3--3-3-3--3--3--3-3-3--5--5--5-5-5--5--5--5-5-5---------------


Chorus::


D--------------------------------------------------------
A--------------------------------------------------------
F---5--5--5-5-5--2--2--2-2-2-----------------------------
C---5--5--5-5-5--2--2--2-2-2--3--3--3-3-3--5--5--5-5-5---
G---3--3--3-3-3--0--0--0-0-0--3--3--3-3-3--5--5--5-5-5---
C-----------------------------3--3--3-3-3--5--5--5-5-5--- (x5)


D---------------------------------------------------------------
A---------------------------------------------------------------
F---5--5--5-5-5--2--2--2-2-2------------------------------------
C---5--5--5-5-5--2--2--2-2-2--3--3--3-3-3--5--x-x-x-x-x-x-x-x---
G---3--3--3-3-3--0--0--0-0-0--3--3--3-3-3--5--x-x-x-x-x-x-x-x---
C-----------------------------3--3--3-3-3--5--x-x-x-x-x-x-x-x---


Verse::

   I can't believe....

D--------------------------------------------------------
A--------------------------------------------------------
F---5--5--5-5-5--2--2--2-2-2-----------------------------
C---5--5--5-5-5--2--2--2-2-2--3--3--3-3-3--5--5--5-5-5---
G---3--3--3-3-3--0--0--0-0-0--3--3--3-3-3--5--5--5-5-5---
C-----------------------------3--3--3-3-3--5--5--5-5-5--- (x4)


Pre-Chorus::


D--------------------------------------------------------
A--------------------------------------------------------
F--------------------------------------------------------
C---3--3--3-3-3--3--3--3-3-3--5--5--5-5-5--5--5--5-5-5---
G---3--3--3-3-3--3--3--3-3-3--5--5--5-5-5--5--5--5-5-5---
C---3--3--3-3-3--3--3--3-3-3--5--5--5-5-5--5--5--5-5-5--- (x3)


D--------------------------------------------------------------------
A--------------------------------------------------------------------
F-------------------------------------------------------2--2--4--4---
C---3--3--3-3-3--3--3--3-3-3--5--5--5-5-5--5--5--5-5-5--2--2--4--4---
G---3--3--3-3-3--3--3--3-3-3--5--5--5-5-5--5--5--5-5-5--0--0--2--2---
C---3--3--3-3-3--3--3--3-3-3--5--5--5-5-5--5--5--5-5-5---------------


Chorus::


D--------------------------------------------------------
A--------------------------------------------------------
F---5--5--5-5-5--2--2--2-2-2-----------------------------
C---5--5--5-5-5--2--2--2-2-2--3--3--3-3-3--5--5--5-5-5---
G---3--3--3-3-3--0--0--0-0-0--3--3--3-3-3--5--5--5-5-5---
C-----------------------------3--3--3-3-3--5--5--5-5-5--- (x5)


D--------------------------------------------------------
A--------------------------------------------------------
F---5--5--5-5-5--2--2--2-2-2-----------------------------
C---5--5--5-5-5--2--2--2-2-2--3--3--3-3-3--5--5--5-5-5---
G---3--3--3-3-3--0--0--0-0-0--3--3--3-3-3--5--5--5-5-5---
C-----------------------------3--3--3-3-3--5--5--5-5-5---


Pre-Chorus::


D--------------------------------------------------------
A--------------------------------------------------------
F--------------------------------------------------------
C---3--3--3-3-3--3--3--3-3-3--5--5--5-5-5--5--5--5-5-5---
G---3--3--3-3-3--3--3--3-3-3--5--5--5-5-5--5--5--5-5-5---
C---3--3--3-3-3--3--3--3-3-3--5--5--5-5-5--5--5--5-5-5--- (x3)


D--------------------------------------------------------------------
A--------------------------------------------------------------------
F-------------------------------------------------------2--2--4--4---
C---3--3--3-3-3--3--3--3-3-3--5--5--5-5-5--5--5--5-5-5--2--2--4--4---
G---3--3--3-3-3--3--3--3-3-3--5--5--5-5-5--5--5--5-5-5--0--0--2--2---
C---3--3--3-3-3--3--3--3-3-3--5--5--5-5-5--5--5--5-5-5---------------


Chorus::


D--------------------------------------------------------      ------
A--------------------------------------------------------      ------
F---5--5--5-5-5--2--2--2-2-2-----------------------------      --5---
C---5--5--5-5-5--2--2--2-2-2--3--3--3-3-3--5--5--5-5-5---      --5---
G---3--3--3-3-3--0--0--0-0-0--3--3--3-3-3--5--5--5-5-5---      --3---
C-----------------------------3--3--3-3-3--5--5--5-5-5--- (x4) ------







10. Ghost Stories


Intro::


D--------------------------
A---11-------14-------7----
F---11-------14-------7----
C---9--------12-------5----
G--------------------------
C-------------------------- (x2)


Verse::


D--------------------------
A---11-------14-------7----
F---11-------14-------7----
C---9--------12-------5----
G--------------------------
C-------------------------- (x4)


Chorus::



D---------------------------------------------------
A---11---11-11---11-11-11---14---14-14---14-14-14---
F---11---11-11---11-11-11---14---14-14---14-14-14---
C---9----9--9----9--9--9----12---12-12---12-12-12---
G---------------------------------------------------
C---------------------------------------------------


D-------2/3\2-0--2--0-2/3h5-0---
A---7---------------------------
F---7---------------------------
C---5---------------------------
G-------------------------------
C------------------------------- (x6)


Verse::



D--------------------------
A---11-------14-------7----
F---11-------14-------7----
C---9--------12-------5----
G--------------------------
C-------------------------- (x4)



Chorus::



D---------------------------------------------------
A---11---11-11---11-11-11---14---14-14---14-14-14---
F---11---11-11---11-11-11---14---14-14---14-14-14---
C---9----9--9----9--9--9----12---12-12---12-12-12---
G---------------------------------------------------
C---------------------------------------------------


D-------2/3\2-0--2--0-2/3h5-0---
A---7---------------------------
F---7---------------------------
C---5---------------------------
G-------------------------------
C------------------------------- (x6)



Verse::



D--------------------------
A---11-------14-------7----
F---11-------14-------7----
C---9--------12-------5----
G--------------------------
C-------------------------- (x2)



Chorus::



D---------------------------------------------------
A---11---11-11---11-11-11---14---14-14---14-14-14---
F---11---11-11---11-11-11---14---14-14---14-14-14---
C---9----9--9----9--9--9----12---12-12---12-12-12---
G---------------------------------------------------
C---------------------------------------------------


D-------2/3\2-0--2--0-2/3h5-0---
A---7---------------------------
F---7---------------------------
C---5---------------------------
G-------------------------------
C------------------------------- (x4)



Outro::



D--------------------------
A---11-------14-------7----
F---11-------14-------7----
C---9--------12-------5----
G--------------------------
C-------------------------- (x2)









11.  Transylvania 90210




Intro::



D-----------------------------------------------
A-----------------------------------------------
F-----------------------------------------------
C---5----2------5----2------5----0-----5----2---
G---5----2------5----2------5----0-----5----2---
C---5----2------5----2------5----0-----5----2---


Verse::


D-----------------------------------------------
A-----------------------------------------------
F-----------------------------------------------
C---5----2------5----2------5----0-----5----2---
G---5----2------5----2------5----0-----5----2---
C---5----2------5----2------5----0-----5----2--- (x2)


Chorus::



D-------------------------------------------------
A-------------------------------------------------
F-------------------------------------------------
C---7--10-----10-10-0-7---7-7-0--10---10-10-0-7---
G---7--10-----10-10-0-7---7-7-0--10---10-10-0-7---
C---7--10-----10-10-0-7---7-7-0--10---10-10-0-7---



D--------------------------------------------------------
A--------------------------------------------------------
F--------------------------------------------------------
C----7-7-0--10---10-10-0--7---7-7-0--10---10-10-10--12---
G----7-7-0--10---10-10-0--7---7-7-0--10---10-10-10--12---
C----7-7-0--10---10-10-0--7---7-7-0--10---10-10-10--12---


Verse::


D-----------------------------------------------
A-----------------------------------------------
F-----------------------------------------------
C---5----2------5----2------5----0-----5----2---
G---5----2------5----2------5----0-----5----2---
C---5----2------5----2------5----0-----5----2--- (x3)


Chorus::



D-------------------------------------------------
A-------------------------------------------------
F-------------------------------------------------
C---7--10-----10-10-0-7---7-7-0--10---10-10-0-7---
G---7--10-----10-10-0-7---7-7-0--10---10-10-0-7---
C---7--10-----10-10-0-7---7-7-0--10---10-10-0-7---



D--------------------------------------------------------
A--------------------------------------------------------
F--------------------------------------------------------
C----7-7-0--10---10-10-0--7---7-7-0--10---10-10-10--12---
G----7-7-0--10---10-10-0--7---7-7-0--10---10-10-10--12---
C----7-7-0--10---10-10-0--7---7-7-0--10---10-10-10--12---



Solo::



D-----------------------------------------------------
A----5-5-7---8---7---5---3---5-5-7---8---10---8---7---
F-----------------------------------------------------
C-----------------------------------------------------
G-----------------------------------------------------
C-----------------------------------------------------

D----------------------------------------------------------
A----5-5-7---8---7---5---3---5-5-7---8---10---8---7--------
F------------------------------------------------------7---
C----------------------------------------------------------
G----------------------------------------------------------
C----------------------------------------------------------


D----------------------------------------------------------
A----5-5-7---8---7---5---3---5-5-7---8---10---8---7--------
F------------------------------------------------------5---
C----------------------------------------------------------
G----------------------------------------------------------
C----------------------------------------------------------



Chorus::



D-------------------------------------------------
A------------------------

Almost there ...

Sign in to get your own page with links to favourite songs and more. You are just one click away...

Login with Facebook Login with Google