Search tabs and chords

Search for song, artist or band

Log in

One click and you are in

Login with Facebook Login with Google

Why sign up and log in

Guitar Tabs Explorer
Wednesday 13 guitar tabs for Trick or treat were going to kill you

Trick Or Treat Were Going To Kill You tab by Wednesday 13

Wednesday 13 guitar tabs for Trick or treat were going to kill you

Guitar tabs

This tab is created by Living Dead 31.


[Intro]
D--------------------------------------------
A--------------------------------------------
F------------------------------------7---7---
C---0-3-5-3h0--0-0-0-0-0-0-0-0-0-0---7---7---
G---0-3-5-3h0--0-0-0-0-0-0-0-0-0-0---5---5---
C---0-3-5-3h0--0-0-0-0-0-0-0-0-0-0-----------(x2)

               ...................



D----------------------------------------------------
A----------------------------------------------------
F------------------------------------7---7---7-7-7---
C---0-3-5-3h0--0-0-0-0-0-0-0-0-0-0---7---7---7-7-7---
G---0-3-5-3h0--0-0-0-0-0-0-0-0-0-0---5---5---5-5-5---
C---0-3-5-3h0--0-0-0-0-0-0-0-0-0-0-------------------

               ...................



D---------------------------------------------------------------------
A---------------------------------------------------------------------
F-------------------------------------------------------------7---7---
C---3--3--3--3---5-5-5-5-5---0-3-5-3h0--0-0-0-0-0-0-0-0-0-0---7---7---
G---3--3--3--3---5-5-5-5-5---0-3-5-3h0--0-0-0-0-0-0-0-0-0-0---5---5---
C---3--3--3--3---5-5-5-5-5---0-3-5-3h0--0-0-0-0-0-0-0-0-0-0-----------

                                        ...................

[Verse]

   Every year on halloween...

D--------------------------------------------
A--------------------------------------------
F--------------------------------------------
C---0-0-0-0-0-0-0-0-0-0-0-0-0-0-0-0------3---
G---0-0-0-0-0-0-0-0-0-0-0-0-0-0-0-0------3---
C---0-0-0-0-0-0-0-0-0-0-0-0-0-0-0-0-(x2)-3---

    ...............................

  Are you ready?...

D--------------------------------------------
A--------------------------------------------
F--------------------------------------------
C---0-0-0-0-0-0-0-0--1--0-0-0-0-0-0-0-0--0---
G---0-0-0-0-0-0-0-0--1--0-0-0-0-0-0-0-0--0---
C---0-0-0-0-0-0-0-0--1--0-0-0-0-0-0-0-0--0---

    ...............     ...............

D----------------------------------------
A----------------------------------------
F----------------------------------------
C---0-0-0-0-0-0-0-0-0-0-0-0-0-0-0-0--0---
G---0-0-0-0-0-0-0-0-0-0-0-0-0-0-0-0--0---
C---0-0-0-0-0-0-0-0-0-0-0-0-0-0-0-0--0--- (x2)

    ...............................


D--------------------------------------------
A--------------------------------------------
F--------------------------------------------
C---0-0-0-0-0-0-0-0-0-0-0-0-0-0-0-0------3---
G---0-0-0-0-0-0-0-0-0-0-0-0-0-0-0-0------3---
C---0-0-0-0-0-0-0-0-0-0-0-0-0-0-0-0------3---

    ...............................


D--------------------------------------------
A--------------------------------------------
F--------------------------------------------
C---0-0-0-0-0-0-0-0--1--0-0-0-0-0-0-0-0--0---
G---0-0-0-0-0-0-0-0--1--0-0-0-0-0-0-0-0--0---
C---0-0-0-0-0-0-0-0--1--0-0-0-0-0-0-0-0--0---

    ...............     ...............


D----------------------------------------
A----------------------------------------
F-------------------------7---7--7-7-7---
C---0-0-0-0-0-0-0-0-0-0---7---7--7-7-7---
G---0-0-0-0-0-0-0-0-0-0---5---5--5-5-5---
C---0-0-0-0-0-0-0-0-0-0------------------

    ....................

[Chorus]


D-----------------------------------
A-----------------------------------
F-------------------7-7-7-7-7-7-7---
C---3-3-0--3-3-0----7-7-7-7-7-7-7---
G---3-3-0--3-3-0----5-5-5-5-5-5-5---
C---3-3-0--3-3-0-------------------- (x4)


 We're gonna kill...

D--------------------------------------------
A--------------------------------------------
F------------------------------------7---7---
C---0-3-5-3h0--0-0-0-0-0-0-0-0-0-0---7---7---
G---0-3-5-3h0--0-0-0-0-0-0-0-0-0-0---5---5---
C---0-3-5-3h0--0-0-0-0-0-0-0-0-0-0-----------(x2)

               ...................


D----------------------------------------------------
A----------------------------------------------------
F------------------------------------7---7---7-7-7---
C---0-3-5-3h0--0-0-0-0-0-0-0-0-0-0---7---7---7-7-7---
G---0-3-5-3h0--0-0-0-0-0-0-0-0-0-0---5---5---5-5-5---
C---0-3-5-3h0--0-0-0-0-0-0-0-0-0-0-------------------

               ...................

  That's what we do...

D---------------------------------------------------------------------
A---------------------------------------------------------------------
F-------------------------------------------------------------7---7---
C---3--3--3--3---5-5-5-5-5---0-3-5-3h0--0-0-0-0-0-0-0-0-0-0---7---7---
G---3--3--3--3---5-5-5-5-5---0-3-5-3h0--0-0-0-0-0-0-0-0-0-0---5---5---
C---3--3--3--3---5-5-5-5-5---0-3-5-3h0--0-0-0-0-0-0-0-0-0-0-----------

                                        ...................

[Verse 2]


D--------------------------------------------
A--------------------------------------------
F------------------------------------7---7---
C---0-3-5-3h0--0-0-0-0-0-0-0-0-0-0---7---7---
G---0-3-5-3h0--0-0-0-0-0-0-0-0-0-0---5---5---
C---0-3-5-3h0--0-0-0-0-0-0-0-0-0-0-----------(x2)

               ...................


D----------------------------------------------------
A----------------------------------------------------
F------------------------------------7---7---7-7-7---
C---0-3-5-3h0--0-0-0-0-0-0-0-0-0-0---7---7---7-7-7---
G---0-3-5-3h0--0-0-0-0-0-0-0-0-0-0---5---5---5-5-5---
C---0-3-5-3h0--0-0-0-0-0-0-0-0-0-0-------------------

               ...................

D---------------------------------------------------------------------
A---------------------------------------------------------------------
F-------------------------------------------------------------7---7---
C---3--3--3--3---5-5-5-5-5---0-3-5-3h0--0-0-0-0-0-0-0-0-0-0---7---7---
G---3--3--3--3---5-5-5-5-5---0-3-5-3h0--0-0-0-0-0-0-0-0-0-0---5---5---
C---3--3--3--3---5-5-5-5-5---0-3-5-3h0--0-0-0-0-0-0-0-0-0-0-----------

                                        ...................

[Verse]


   And when you open...

D--------------------------------------------
A--------------------------------------------
F--------------------------------------------
C---0-0-0-0-0-0-0-0-0-0-0-0-0-0-0-0------3---
G---0-0-0-0-0-0-0-0-0-0-0-0-0-0-0-0------3---
C---0-0-0-0-0-0-0-0-0-0-0-0-0-0-0-0-(x2)-3---

    ...............................

  Are you ready?...

D--------------------------------------------
A--------------------------------------------
F--------------------------------------------
C---0-0-0-0-0-0-0-0--1--0-0-0-0-0-0-0-0--0---
G---0-0-0-0-0-0-0-0--1--0-0-0-0-0-0-0-0--0---
C---0-0-0-0-0-0-0-0--1--0-0-0-0-0-0-0-0--0---

    ...............     ...............


D----------------------------------------
A----------------------------------------
F----------------------------------------
C---0-0-0-0-0-0-0-0-0-0-0-0-0-0-0-0--0---
G---0-0-0-0-0-0-0-0-0-0-0-0-0-0-0-0--0---
C---0-0-0-0-0-0-0-0-0-0-0-0-0-0-0-0--0---

    ...............................


D--------------------------------------------
A--------------------------------------------
F--------------------------------------------
C---0-0-0-0-0-0-0-0-0-0-0-0-0-0-0-0------3---
G---0-0-0-0-0-0-0-0-0-0-0-0-0-0-0-0------3---
C---0-0-0-0-0-0-0-0-0-0-0-0-0-0-0-0-(x2)-3---

    ...............................


D--------------------------------------------
A--------------------------------------------
F--------------------------------------------
C---0-0-0-0-0-0-0-0--1--0-0-0-0-0-0-0-0--0---
G---0-0-0-0-0-0-0-0--1--0-0-0-0-0-0-0-0--0---
C---0-0-0-0-0-0-0-0--1--0-0-0-0-0-0-0-0--0---

    ...............     ...............


D----------------------------------------
A----------------------------------------
F-------------------------7---7--7-7-7---
C---0-0-0-0-0-0-0-0-0-0---7---7--7-7-7---
G---0-0-0-0-0-0-0-0-0-0---5---5--5-5-5---
C---0-0-0-0-0-0-0-0-0-0------------------

    ....................


[Chorus]


D-----------------------------------
A-----------------------------------
F-------------------7-7-7-7-7-7-7---
C---3-3-0--3-3-0----7-7-7-7-7-7-7---
G---3-3-0--3-3-0----5-5-5-5-5-5-5---
C---3-3-0--3-3-0-------------------- (x4)


 We're gonna kill...

D--------------------------------------------
A--------------------------------------------
F------------------------------------7---7---
C---0-3-5-3h0--0-0-0-0-0-0-0-0-0-0---7---7---
G---0-3-5-3h0--0-0-0-0-0-0-0-0-0-0---5---5---
C---0-3-5-3h0--0-0-0-0-0-0-0-0-0-0-----------(x2)

               ...................


D----------------------------------------------------
A----------------------------------------------------
F------------------------------------7---7---7-7-7---
C---0-3-5-3h0--0-0-0-0-0-0-0-0-0-0---7---7---7-7-7---
G---0-3-5-3h0--0-0-0-0-0-0-0-0-0-0---5---5---5-5-5---
C---0-3-5-3h0--0-0-0-0-0-0-0-0-0-0-------------------

               ...................

  That's what we do...

D---------------------------------------------------------------------
A---------------------------------------------------------------------
F-------------------------------------------------------------7---7---
C---3--3--3--3---5-5-5-5-5---0-3-5-3h0--0-0-0-0-0-0-0-0-0-0---7---7---
G---3--3--3--3---5-5-5-5-5---0-3-5-3h0--0-0-0-0-0-0-0-0-0-0---5---5---
C---3--3--3--3---5-5-5-5-5---0-3-5-3h0--0-0-0-0-0-0-0-0-0-0-----------

                                        ...................


[Bridge]


D--------------------------------------------
A--------------------------------------------
F------------------------------------7---7---
C---0-3-5-3h0--0-0-0-0-0-0-0-0-0-0---7---7---
G---0-3-5-3h0--0-0-0-0-0-0-0-0-0-0---5---5---
C---0-3-5-3h0--0-0-0-0-0-0-0-0-0-0-----------(x2)

               ...................


D----------------------------------------------------
A----------------------------------------------------
F------------------------------------7---7---7-7-7---
C---0-3-5-3h0--0-0-0-0-0-0-0-0-0-0---7---7---7-7-7---
G---0-3-5-3h0--0-0-0-0-0-0-0-0-0-0---5---5---5-5-5---
C---0-3-5-3h0--0-0-0-0-0-0-0-0-0-0-------------------

               ...................

D---------------------------------------------------------------------
A---------------------------------------------------------------------
F-------------------------------------------------------------7---7---
C---3--3--3--3---5-5-5-5-5---0-3-5-3h0--0-0-0-0-0-0-0-0-0-0---7---7---
G---3--3--3--3---5-5-5-5-5---0-3-5-3h0--0-0-0-0-0-0-0-0-0-0---5---5---
C---3--3--3--3---5-5-5-5-5---0-3-5-3h0--0-0-0-0-0-0-0-0-0-0-----------

                                        ...................

D--------------------------------------------
A--------------------------------------------
F------------------------------------7---7---
C---0-3-5-3h0--0-0-0-0-0-0-0-0-0-0---7---7---
G---0-3-5-3h0--0-0-0-0-0-0-0-0-0-0---5---5---
C---0-3-5-3h0--0-0-0-0-0-0-0-0-0-0-----------(x2)

               ...................

D-------------------------------------------------------------------------
A-------------------------------------------------------------------------
F-------------------------------------------------------------x--7--x-7---
C---3--3--3--3---5-5-5-5-5---0-3-5-3h0--0-0-0-0-0-0-0-0-0-0---x--7--x-7---
G---3--3--3--3---5-5-5-5-5---0-3-5-3h0--0-0-0-0-0-0-0-0-0-0---x--5--x-5---
C---3--3--3--3---5-5-5-5-5---0-3-5-3h0--0-0-0-0-0-0-0-0-0-0-----------

                                        ...................


[Chorus]


D-----------------------------------
A-----------------------------------
F-------------------7-7-7-7-7-7-7---
C---3-3-0--3-3-0----7-7-7-7-7-7-7---
G---3-3-0--3-3-0----5-5-5-5-5-5-5---
C---3-3-0--3-3-0-------------------- (x4)


 We're gonna kill...

D--------------------------------------------
A--------------------------------------------
F------------------------------------7---7---
C---0-3-5-3h0--0-0-0-0-0-0-0-0-0-0---7---7---
G---0-3-5-3h0--0-0-0-0-0-0-0-0-0-0---5---5---
C---0-3-5-3h0--0-0-0-0-0-0-0-0-0-0-----------(x2)

               ...................


D----------------------------------------------------
A----------------------------------------------------
F------------------------------------7---7---7-7-7---
C---0-3-5-3h0--0-0-0-0-0-0-0-0-0-0---7---7---7-7-7---
G---0-3-5-3h0--0-0-0-0-0-0-0-0-0-0---5---5---5-5-5---
C---0-3-5-3h0--0-0-0-0-0-0-0-0-0-0-------------------

               ...................

  That's what we do...

D---------------------------------------------------------------------
A---------------------------------------------------------------------
F-------------------------------------------------------------7---7---
C---3--3--3--3---5-5-5-5-5---0-3-5-3h0--0-0-0-0-0-0-0-0-0-0---7---7---
G---3--3--3--3---5-5-5-5-5---0-3-5-3h0--0-0-0-0-0-0-0-0-0-0---5---5---
C---3--3--3--3---5-5-5-5-5---0-3-5-3h0--0-0-0-0-0-0-0-0-0-0-----------

                                        ...................


D--------------------------------------------
A--------------------------------------------
F------------------------------------7---7---
C---0-3-5-3h0--0-0-0-0-0-0-0-0-0-0---7---7---
G---0-3-5-3h0--0-0-0-0-0-0-0-0-0-0---5---5---
C---0-3-5-3h0--0-0-0-0-0-0-0-0-0-0-----------(x2)

               ...................


D----------------------------------------------------
A----------------------------------------------------
F------------------------------------7---7---7-7-7---
C---0-3-5-3h0--0-0-0-0-0-0-0-0-0-0---7---7---7-7-7---
G---0-3-5-3h0--0-0-0-0-0-0-0-0-0-0---5---5---5-5-5---
C---0-3-5-3h0--0-0-0-0-0-0-0-0-0-0-------------------

               ...................


D---------------------------------------------------------------------
A---------------------------------------------------------------------
F-------------------------------------------------------------7---7---
C---3--3--3--3---5-5-5-5-5---0-3-5-3h0--0-0-0-0-0-0-0-0-0-0---7---7---
G---3--3--3--3---5-5-5-5-5---0-3-5-3h0--0-0-0-0-0-0-0-0-0-0---5---5---
C---3--3--3--3---5-5-5-5-5---0-3-5-3h0--0-0-0-0-0-0-0-0-0-0-----------

                                        ...................


D--------------------------------------------
A--------------------------------------------
F------------------------------------7---7---
C---0-3-5-3h0--0-0-0-0-0-0-0-0-0-0---7---7---
G---0-3-5-3h0--0-0-0-0-0-0-0-0-0-0---5---5---
C---0-3-5-3h0--0-0-0-0-0-0-0-0-0-0-----------(x2)

               ...................


D----------------------------------------------------
A----------------------------------------------------
F------------------------------------7---7---7-7-7---
C---0-3-5-3h0--0-0-0-0-0-0-0-0-0-0---7---7---7-7-7---
G---0-3-5-3h0--0-0-0-0-0-0-0-0-0-0---5---5---5-5-5---
C---0-3-5-3h0--0-0-0-0-0-0-0-0-0-0-------------------

               ...................


D----------------------------------------
A----------------------------------------
F----------------------------------------
C---3--3--3--3---5-5-5-5-5---0-3-5-3h0---
G---3--3--3--3---5-5-5-5-5---0-3-5-3h0---
C---3--3--3--3---5-5-5-5-5---0-3-5-3h0---



.  - Palm mute

Almost there ...

Sign in to get your own page with links to favourite songs and more. You are just one click away...

Login with Facebook Login with Google