Search tabs and chords

Search for song, artist or band

Log in

One click and you are in

Login with Facebook Login with Google

Why sign up and log in

Guitar Tabs Explorer
Wednesday 13 guitar tabs for Silver bullets

Guitar tabs

----------------------------------------------------------------------------
                         Wednesday 13 - Silver Bullets
----------------------------------------------------------------------------

Tabbed by: Metalrock4ever

Tuning: DADGBE

Intro:
E|---------------------|
B|---------------------|
G|-5555-5555-5555-5555-|
D|-5555-5555-5555-5555-|  x4
A|-3333-3333-3333-3333-|
D|---------------------|

Then...
E|---------------------|
B|---------------------|
G|-5555-9999-2222------|
D|-5555-7777-2222-5555-|
A|-3333-7777-0000-5555-|
D|----------------5555-|

E|---------------------|
B|---------------------|
G|-5555------2222------|
D|-5555-2222-2222-5555-|
A|-3333-2222-0000-5555-|
D|------2222------5555-|

Solo:
E|----8----8-13-12-10-12-10~-8-13-12-10-8-|
B|-8~---8~--------------------------------|
G|----------------------------------------|
D|----------------------------------------|
A|----------------------------------------|
D|----------------------------------------|

E|----7/8----8-13-12-10-12-10~-|
B|-8~-----8~-------------------|
G|-----------------------------|
D|-----------------------------|
A|-----------------------------|
D|-----------------------------|

Verse:
E|-------------------------------------|
B|-------------------------------------|
G|-5-5x5x5x----------2-2x2x2x----------|  x2
D|-5-5x5x5x-2-2x2x2x-2-2x2x2x-5-5x5x5x-|
A|-3-3x3x3x-2-2x2x2x-0-0x0x0x-5-5x5x5x-|
D|----------2-2x2x2x----------5-5x5x5x-|


Pre-Chorus:
E|--------------------|
B|--------------------|
G|--------------------|
D|-3333-7777-5x5x5x5x-| x4
A|-3333-7777-5x5x5x5x-|
D|-3333-7777-5x5x5x5x-|

Solo:
E|-3~-5~-8~-|
B|----5x----|
G|----5~----|
D|----------|  x3
A|----------|
D|----------|

E|-3~-----------|
B|--------------|
G|----2~-0---0~-|
D|---------2-0~-|
A|--------------|
D|--------------|


Chorus:
E|---------------------|
B|---------------------|
G|-5555------2222------|  x2
D|-5555-2222-2222-5555-|
A|-3333-2222-0000-5555-|
D|------2222------5555-|

Solo - optional:
(Play quietly)
E|---------------------|
B|-8~---8~---10~--8~---|
G|---------------------|
D|---------------------|
A|---------------------|
D|---------------------|


Post-Chorus:
E|---------------------|
B|---------------------|
G|-5555------2222------|  x2
D|-5555-2222-2222-5555-|
A|-3333-2222-0000-5555-|
D|------2222------5555-|

Solo:
E|----8----8-13-12-10-12-10~-8-13-12-10-8-|
B|-8~---8~--------------------------------|
G|----------------------------------------|
D|----------------------------------------|
A|----------------------------------------|
D|----------------------------------------|

E|----7/8----8-13-12-10-12-10~-|
B|-8~-----8~-------------------|
G|-----------------------------|
D|-----------------------------|
A|-----------------------------|
D|-----------------------------|


Verse 2:
E|-------------------------------------|
B|-------------------------------------|
G|-5-5x5x5x----------2-2x2x2x----------|  x2
D|-5-5x5x5x-2-2x2x2x-2-2x2x2x-5-5x5x5x-|
A|-3-3x3x3x-2-2x2x2x-0-0x0x0x-5-5x5x5x-|
D|----------2-2x2x2x----------5-5x5x5x-|


Pre-Chorus:
E|--------------------|
B|--------------------|
G|--------------------|
D|-3333-7777-5x5x5x5x-| x4
A|-3333-7777-5x5x5x5x-|
D|-3333-7777-5x5x5x5x-|

Solo:
E|-3~-5~-8~-|
B|----5x----|
G|----5~----|
D|----------|  x3
A|----------|
D|----------|
E|-3~-----------|
B|--------------|
G|----2~-0---0~-|
D|---------2-0~-|
A|--------------|
D|--------------|


Chorus 2:
E|---------------------|
B|---------------------|
G|-5555------2222------|  x2
D|-5555-2222-2222-5555-|
A|-3333-2222-0000-5555-|
D|------2222------5555-|

Solo - optional:
(Play quietly)
E|---------------------|
B|-8~---8~---10~--8~---|
G|---------------------|
D|---------------------|
A|---------------------|
D|---------------------|


Bridge:
E|---------------------|
B|---------------------|
G|-5555------2222------|  x2
D|-5555-2222-2222-5555-|
A|-3333-2222-0000-5555-|
D|------2222------5555-|

Solo - Guitar 1:
E|-----------------------------------------------|
B|-0h1-0h1-0h1-0h1-0h1-3~-7h8-7h8-7h8-7h8-7h8-3~-|
G|-----------------------------------------------|
D|-----------------------------------------------|
A|-----------------------------------------------|
D|-----------------------------------------------|

E|---------------------------------------|
B|-0h1-0h1-0h1-0h1-0h1-3~-6-5-3-1-0---1~-|
G|----------------------------------0----|
D|---------------------------------------|
A|---------------------------------------|
D|---------------------------------------|

Solo - Guitar 2:
E|-----------------------------------------------|
B|-----------------------------------------------|
G|-----------------------------------------------|
D|------------------------4h5-4h5-4h5-4h5-4h5-5~-|
A|-2h3-2h3-2h3-2h3-2h3-5~------------------------|
D|-----------------------------------------------|

E|---------------------------------------|
B|---------------------------------------|
G|---------------------------------------|
D|------------------------3-2-0----------|
A|-2h3-2h3-2h3-2h3-2h3-5~-------3-2---3~-|
D|----------------------------------5----|


Pre-Chorus:
E|--------------------|
B|--------------------|
G|--------------------|
D|-3333-7777-5x5x5x5x-| x4
A|-3333-7777-5x5x5x5x-|
D|-3333-7777-5x5x5x5x-|

Solo:
E|-3~-5~-8~-|
B|----5x----|
G|----5~----|
D|----------|  x3
A|----------|
D|----------|

E|-3~-----------|
B|--------------|
G|----2~-0---0~-|
D|---------2-0~-|
A|--------------|
D|--------------|


Final Chorus:
E|---------------------|
B|---------------------|
G|-5555------2222------|  x2
D|-5555-2222-2222-5555-|
A|-3333-2222-0000-5555-|
D|------2222------5555-|

Solo - optional:
(Play quietly)
E|---------------------|
B|-8~---8~---10~--8~---|
G|---------------------|
D|---------------------|
A|---------------------|
D|---------------------|


Post-Chorus:
E|---------------------|
B|---------------------|
G|-5555------2222------|  x2
D|-5555-2222-2222-5555-|
A|-3333-2222-0000-5555-|
D|------2222------5555-|

Solo:
E|----8----8-13-12-10-12-10~-8-13-12-10-8-|
B|-8~---8~--------------------------------|
G|----------------------------------------|
D|----------------------------------------|
A|----------------------------------------|
D|----------------------------------------|

E|----7/8----8-13-12-10-12-10~-|
B|-8~-----8~-------------------|
G|-----------------------------|
D|-----------------------------|
A|-----------------------------|
D|-----------------------------|


End on:
E|---|
B|---|
G|-5-|
D|-5-|
A|-3-|
D|---|

************************************

| /   slide up
| \   slide down
| h   hammer-on
| ~   vibrato
| x   Mute note

************************************

If you have any comments/corrections, please feel free to say in either

Almost there ...

Sign in to get your own page with links to favourite songs and more. You are just one click away...

Login with Facebook Login with Google