Search tabs and chords

Search for song, artist or band

Log in

One click and you are in

Login with Facebook Login with Google

Why sign up and log in

Guitar Tabs Explorer
Wednesday 13 bass tabs for Nowhere acoustic

Bass tabs

-------------------------------------------------------------------------------
                             Nowhere Acoustic - Wednesday 13
-------------------------------------------------------------------------------
Tabbed by: Andu Needle
E-mail: sulfur_in_my_lungs@yahoo.com

This is just my way of playing the song.
The track has no bass so I felt free to do whatever I wanted to.

Intro:

G|-12~--10~--9~--12~---------------------------------------------------------|
D|-10~--8~---7~--10~---------------------------------------------------------|
A|---------------------------------------------------------------------------|
E|---------------------------------------------------------------------------|

Verse:

G|-12~---------10~--------9~--------12~--------------------------------------|
D|-10~-10(x14)-8~-8(x14)--7~-7(x14)-10~-(x14)--------------------------------|
A|---------------------------------------------------------------------------|
E|---------------------------------------------------------------------------|(x2)

Pre chorus:

G|---------------------------------------------------------------------------|
D|-7-7-5-5-3~-3~-333--7-7-5-5-3~-3~-333--7-7-5-5-3~-3~-333-------------------|
A|---------------------------------------------------------------------------|
E|---------------------------------------------------------------------------|

G|---------------------------------------------------------------------------|
D|-5-5555555555555555--------------------------------------------------------|
A|---------------------------------------------------------------------------|
E|---------------------------------------------------------------------------|

Chorus:

G|---------------------------------------------------------------------------|
D|-14-15~--15-14-15-14-12----14-15~--15-14-15-14-12--------------------------|
A|------------------------15------------------------15-----------------------|
E|---------------------------------------------------------------------------|

G|---------------------------------------------------------------------------|
D|-14-15~--15-14-15-14-12-14-10~---------------------------------------------|
A|---------------------------------------------------------------------------|
E|---------------------------------------------------------------------------|

The rest of the song is the same.
The verses are the same, the pre choruses, the choruses etc.

Though at the solo I like to follow as well from the original song:

G|---------------------------------------------------------------------------|
D|-14-15~--15-14-15-14-15-14-15/17-15~--15-14-15-14-15-14-15/17-15~----------|
A|---------------------------------------------------------------------------|
E|---------------------------------------------------------------------------|

G|---------------------------------------------------------------------------|
D|-15-14-15-14-12-14-10~-----------------------------------------------------|
A|---------------------------------------------------------------------------|

Almost there ...

Sign in to get your own page with links to favourite songs and more. You are just one click away...

Login with Facebook Login with Google