Search tabs and chords

Search for song, artist or band

Log in

One click and you are in

Login with Facebook Login with Google

Why sign up and log in

Guitar Tabs Explorer
Wednesday 13 guitar tabs for Monsters of the universe come out and plague album

Monsters Of The Universe Come Out And Plague Album tab by Wednesday 13

Wednesday 13 guitar tabs for Monsters of the universe come out and plague album

Guitar tabs

This album tab is created by Living Dead 31.

Album: Monsters of The Universe: Come Out and Plague
Year: 2015
Tuning: Drop A chord diagramC majorC
        Drop A chord diagramBB
        Drop A chord diagramBb majorBb (A chord diagramA#A#)



1. The Fall of All


Intro/Verse/Outro:

D|----------------------------------------------------------------------------------------------------|
A|----------------------------------------------------------------------------------------------------|
F|----------------------------------------------------------------------------------------------------|
C|----------------------------------------------------------------------------------------------------|
G|--7-7-7-7-7-7-7-7-7-7-7-7-7-7-7-7-6-6-6-6-6-6-6-6-6-6-6-6-6-6-6-6-5-5-5-5-5-5-5-5-5-5-5-5-5-5-5-5---|
C|----------------------------------------------------------------------------------------------------|

D|------------------------------------|
A|------------------------------------|
F|------------------------------------|
C|------------------------------------|
G|--1-1-1-1-1-1-1-1-2-2-2-2-2-2-2-2---|
C|------------------------------------|(x7)


2. Keep Watching The Skies


Intro:

D|-------------------------------------------|
A|-------------------------------------------|
F|-------------------------------------------|
C|------2-------2-------2-------2--5-3-2-2---|
G|------2-------2-------2-------2--5-3-2-2---|
C|--2-2-2---2-2-2---2-2-2---2-2-2--5-3-2-2---|
    . .     . .     . .     . .

D|--------------------------------------------------------------------------|
A|--------------------------------------------------------------------------|
F|--------------------------------------------------------------------------|
C|-----------------------2------2------2------2--0-0-0-2--------------------|
G|-----------------------2------2------2------2--0-0-0-2--------------------|
C|--2-2-2-2-2-2-2-2--2-2-2--2-2-2--2-2-2--2-2-2--0-0-0-2--2-2-2-2-2-2-2-2---|(x2)
    . . . . . . . .  . .    . .    . .    . .             . . . . . . . .

Verse:

D|-------------------------------------------|
A|-------------------------------------------|
F|-------------------------------------------|
C|------2-------2-------2-------2--5-3-2-2---|
G|------2-------2-------2-------2--5-3-2-2---|
C|--2-2-2---2-2-2---2-2-2---2-2-2--5-3-2-2---|
    . .     . .     . .     . .

D|--------------------------------------------------------------------------|
A|--------------------------------------------------------------------------|
F|--------------------------------------------------------------------------|
C|-----------------------2------2------2------2--0-0-0-2--------------------|
G|-----------------------2------2------2------2--0-0-0-2--------------------|
C|--2-2-2-2-2-2-2-2--2-2-2--2-2-2--2-2-2--2-2-2--0-0-0-2--2-2-2-2-2-2-2-2---|
    . . . . . . . .  . .    . .    . .    . .             . . . . . . . .


Pre-Chorus:

D|----------------------------------------------------------------------------------------------------|
A|----------------------------------------------------------------------------------------------------|
F|----------------------------------------------------------------------------------------------------|
C|--8-7-5-2-------------------8-7-5-2-------------------8-7-5-2--------------------0-0-0-2--2-2-2-2---|
G|--8-7-5-2-------------------8-7-5-2-------------------8-7-5-2--------------------0-0-0-2--2-2-2-2---|
C|--8-7-5-2--2-2-2-2-2-2-2-2--8-7-5-2--2-2-2-2-2-2-2-2--8-7-5-2--2-2-2-2-2-2-2-2---0-0-0-2--2-2-2-2---|(x2)
             . . . . . . . .           . . . . . . . .           . . . . . . . .            .   .

D|-----------------|
A|-----------------|
F|-----------------|
C|--8-7--8-7-5-2---|
G|--8-7--8-7-5-2---|
C|--8-7--8-7-5-2---|


Chorus:

D|------------------------------------------------------------|
A|------------------------------------------------------------|
F|------------------------------------------------------------|
C|------2-------2-------2-------2--5-3-2-2--------------------|
G|------2-------2-------2-------2--5-3-2-2--------------------|
C|--2-2-2---2-2-2---2-2-2---2-2-2--5-3-2-2--2-2-2-2-2-2-2-2---|
    . .     . .     . .     . .             . . . . . . . .


D|---------------------------------------------------------|
A|---------------------------------------------------------|
F|---------------------------------------------------------|
C|------2------2------2------2--0-0-0-2--------------------|
G|------2------2------2------2--0-0-0-2--------------------|
C|--2-2-2--2-2-2--2-2-2--2-2-2--0-0-0-2--2-2-2-2-2-2-2-2---|(x2)
    . .    . .    . .    . .             . . . . . . . .


D|--------13-12---13------------------------|
A|--5~----------------5~---/---3-5-3-5--/---|
F|------------------------------------------|
C|------------------------------------------|
G|------------------------------------------|
C|------------------------------------------|(x2)


Verse:

D|-------------------------------------------|
A|-------------------------------------------|
F|-------------------------------------------|
C|------2-------2-------2-------2--5-3-2-2---|
G|------2-------2-------2-------2--5-3-2-2---|
C|--2-2-2---2-2-2---2-2-2---2-2-2--5-3-2-2---|
    . .     . .     . .     . .

D|--------------------------------------------------------------------------|
A|--------------------------------------------------------------------------|
F|--------------------------------------------------------------------------|
C|-----------------------2------2------2------2--0-0-0-2--------------------|
G|-----------------------2------2------2------2--0-0-0-2--------------------|
C|--2-2-2-2-2-2-2-2--2-2-2--2-2-2--2-2-2--2-2-2--0-0-0-2--2-2-2-2-2-2-2-2---|
    . . . . . . . .  . .    . .    . .    . .             . . . . . . . .


Pre-Chorus:

D|----------------------------------------------------------------------------------------------------|
A|----------------------------------------------------------------------------------------------------|
F|----------------------------------------------------------------------------------------------------|
C|--8-7-5-2-------------------8-7-5-2-------------------8-7-5-2--------------------0-0-0-2--2-2-2-2---|
G|--8-7-5-2-------------------8-7-5-2-------------------8-7-5-2--------------------0-0-0-2--2-2-2-2---|
C|--8-7-5-2--2-2-2-2-2-2-2-2--8-7-5-2--2-2-2-2-2-2-2-2--8-7-5-2--2-2-2-2-2-2-2-2---0-0-0-2--2-2-2-2---|(x2)
             . . . . . . . .           . . . . . . . .           . . . . . . . .            .   .

D|-----------------|
A|-----------------|
F|-----------------|
C|--8-7--8-7-5-2---|
G|--8-7--8-7-5-2---|
C|--8-7--8-7-5-2---|


Chorus:

D|------------------------------------------------------------|
A|------------------------------------------------------------|
F|------------------------------------------------------------|
C|------2-------2-------2-------2--5-3-2-2--------------------|
G|------2-------2-------2-------2--5-3-2-2--------------------|
C|--2-2-2---2-2-2---2-2-2---2-2-2--5-3-2-2--2-2-2-2-2-2-2-2---|
    . .     . .     . .     . .             . . . . . . . .


D|---------------------------------------------------------|
A|---------------------------------------------------------|
F|---------------------------------------------------------|
C|------2------2------2------2--0-0-0-2--------------------|
G|------2------2------2------2--0-0-0-2--------------------|
C|--2-2-2--2-2-2--2-2-2--2-2-2--0-0-0-2--2-2-2-2-2-2-2-2---|(x2)
    . .    . .    . .    . .             . . . . . . . .


D|--------13-12---13------------------------|
A|--5~----------------5~---/---3-5-3-5--/---|
F|------------------------------------------|
C|------------------------------------------|
G|------------------------------------------|
C|------------------------------------------| (x2)


Bridge:

D|---------------------------------------------------------------------------------|
A|---------------------------------------------------------------------------------|
F|---------------------------------------------------------------------------------|
C|---------------------------------------------------------------------------------|
G|--7-7-7-7-7-7-7-7-7-7-7-7-7-7-7-7-10-10-10-10-10-10-10-10-5-5-5-5-5-5------------|
C|---------------------------------------------------------------------------------|
   . . . . . . . . . . . . . . . . .  .  .  .  .  .  .  .  . . . . . .

D|--------------------------------------------------------------------|
A|--------------------------------------------------------------------|
F|--------------------------------------------------------------------|
C|--------------------------------------------------------------------|
G|--8-8-8-8-7-7-7-7-7-7-7-7-7-7-7-7-7-7-7-7-5-5-5-5-8-8-8-8-8-8-8-8---|
C|--------------------------------------------------------------------|(x3)
    . . . . . . . . . . . . . . . . . . . . . . . . . . . . . . . .


D|---------------------------------------------------------------------------------|
A|---------------------------------------------------------------------------------|
F|---------------------------------------------------------------------------------|
C|---------------------------------------------------------------------------------|
G|--7-7-7-7-7-7-7-7-7-7-7-7-7-7-7-7-10-10-10-10-10-10-10-10-5-5-5-5-5-5------------|
C|---------------------------------------------------------------------------------|
   . . . . . . . . . . . . . . . . .  .  .  .  .  .  .  .  . . . . . .


D|-------------------------------------------------------|
A|-------------------------------------------------------|
F|-------------------------------------------------------|
C|-------------------------------------------------------|
G|--8-8-8-8-7-7-7-7-7-7-7-7-7-7-7-7-7-7-7-7-5-5-5-5-8----|
C|-------------------------------------------------------|
    . . . . . . . . . . . . . . . . . . . . . . . . .


D|------------------------------------------------------------------------|
A|------------------------------------------------------------------------|
F|------------------------------------------------------------------------|
C|------------------------------------------------------------------------|
G|------------------------------------------------------------------------|
C|--2-2-2-2-2-2-2-2-2-2-2-2-2-2-2-2-5-5-5-5-5-5-5-5-0-0-0-0-0-0-3-3-3-3---|


D|------------------------------------------------------------|
A|------------------------------------------------------------|
F|------------------------------------------------------------|
C|------------------------------------------------------------|
G|------------------------------------------------------------|
C|--2-2-2-2-2-2-2-2-2-2-2-2-2-2-2-2-0-0-0-0-3-3-3-3-3-3-3-3---|


D|-----------------|
A|-----------------|
F|-----------------|
C|--8-7--8-7-5-2---|
G|--8-7--8-7-5-2---|
C|--8-7--8-7-5-2---|


Chorus:

D|------------------------------------------------------------|
A|------------------------------------------------------------|
F|------------------------------------------------------------|
C|------2-------2-------2-------2--5-3-2-2--------------------|
G|------2-------2-------2-------2--5-3-2-2--------------------|
C|--2-2-2---2-2-2---2-2-2---2-2-2--5-3-2-2--2-2-2-2-2-2-2-2---|
    . .     . .     . .     . .             . . . . . . . .


D|---------------------------------------------------------|
A|---------------------------------------------------------|
F|---------------------------------------------------------|
C|------2------2------2------2--0-0-0-2--------------------|
G|------2------2------2------2--0-0-0-2--------------------|
C|--2-2-2--2-2-2--2-2-2--2-2-2--0-0-0-2--2-2-2-2-2-2-2-2---|(x2)
    . .    . .    . .    . .             . . . . . . . .


D|--------13-12---13------------------------|
A|--5~----------------5~---/---3-5-3-5--/---|
F|------------------------------------------|
C|------------------------------------------|
G|------------------------------------------|
C|------------------------------------------|(x2)


Outro:

D|-----------------|
A|-----------------|
F|-----------------|
C|--8-7--8-7-5-2---|
G|--8-7--8-7-5-2---|
C|--8-7--8-7-5-2---|



3. Astro Psycho Galactic Blood Drive


Intro:

D|----------|
F|----------|
A|----------|
C|--6---5---|
G|--6---5---|
C|--6---5---|


Verse:

D|-----------------------------------------------------------------------------------------|
F|-----------------------------------------------------------------------------------------|
A|-----------------------------------------------------------------------------------------|
C|--------------------0---------------------0---------------------0--------------5/7/5/8---|
G|--------------------0---------------------0---------------------0--------------3/5/3/6---|
C|--0--0--0-0-0-0-0-0-0--0--0--0-0-0-0-0-0--0--0--0--0-0-0-0-0-0--0--0--0--0-0-0-----------|
    .  .  . . . . . .    .  .  . . . . . .     .  .  . . . . . .     .  .  . . .

D|----------------------------------------------------------------------------|
F|----------------------------------------------------------------------------|
A|----------------------------------------------------------------------------|
C|---------------------0---------------------0---------------------0--6---5---|
G|---------------------0---------------------0---------------------0--6---5---|
C|--0--0--0-0-0-0-0-0--0--0--0--0-0-0-0-0-0--0--0--0--0-0-0-0-0-0--0--6---5---|(x2)
    .  .  . . . . . .     .  .  . . . . . .     .  .  . . . . . .


Pre-Chorus:

D|---------------------------------------------------------|
F|---------------------------------------------------------|
A|---------------------------------------------------------|
C|--8-8-8-8-8-8-8-8-8-8-8-8-8-8-8-8-7-7-7-7-7-7-7-7-6--5---|
G|--8-8-8-8-8-8-8-8-8-8-8-8-8-8-8-8-7-7-7-7-7-7-7-7-6--5---|
C|--8-8-8-8-8-8-8-8-8-8-8-8-8-8-8-8-7-7-7-7-7-7-7-7-6--5---|


Chorus:

D|-----------------------------------------------------------------------------------------|
F|-----------------------------------------------------------------------------------------|
A|-----------------------------------------------------------------------------------------|
C|--------------------0---------------------0---------------------0--------------5/7/5/8---|
G|--------------------0---------------------0---------------------0--------------3/5/3/6---|
C|--0--0--0-0-0-0-0-0-0--0--0--0-0-0-0-0-0--0--0--0--0-0-0-0-0-0--0--0--0--0-0-0-----------|
    .  .  . . . . . .    .  .  . . . . . .     .  .  . . . . . .     .  .  . . .

D|----------------------------------------------------------------------------|
F|----------------------------------------------------------------------------|
A|----------------------------------------------------------------------------|
C|---------------------0---------------------0---------------------0--6---5---|
G|---------------------0---------------------0---------------------0--6---5---|
C|--0--0--0-0-0-0-0-0--0--0--0--0-0-0-0-0-0--0--0--0--0-0-0-0-0-0--0--6---5---|
    .  .  . . . . . .     .  .  . . . . . .     .  .  . . . . . .


Verse:

D|-----------------------------------------------------------------------------------------|
F|-----------------------------------------------------------------------------------------|
A|-----------------------------------------------------------------------------------------|
C|--------------------0---------------------0---------------------0--------------5/7/5/8---|
G|--------------------0---------------------0---------------------0--------------3/5/3/6---|
C|--0--0--0-0-0-0-0-0-0--0--0--0-0-0-0-0-0--0--0--0--0-0-0-0-0-0--0--0--0--0-0-0-----------|
    .  .  . . . . . .    .  .  . . . . . .     .  .  . . . . . .     .  .  . . .

D|----------------------------------------------------------------------------|
F|----------------------------------------------------------------------------|
A|----------------------------------------------------------------------------|
C|---------------------0---------------------0---------------------0--6---5---|
G|---------------------0---------------------0---------------------0--6---5---|
C|--0--0--0-0-0-0-0-0--0--0--0--0-0-0-0-0-0--0--0--0--0-0-0-0-0-0--0--6---5---|(x2)
    .  .  . . . . . .     .  .  . . . . . .     .  .  . . . . . .


Pre-Chorus:

D|---------------------------------------------------------|
F|---------------------------------------------------------|
A|---------------------------------------------------------|
C|--8-8-8-8-8-8-8-8-8-8-8-8-8-8-8-8-7-7-7-7-7-7-7-7-6--5---|
G|--8-8-8-8-8-8-8-8-8-8-8-8-8-8-8-8-7-7-7-7-7-7-7-7-6--5---|
C|--8-8-8-8-8-8-8-8-8-8-8-8-8-8-8-8-7-7-7-7-7-7-7-7-6--5---|


Chorus:

D|-----------------------------------------------------------------------------------------|
F|-----------------------------------------------------------------------------------------|
A|-----------------------------------------------------------------------------------------|
C|--------------------0---------------------0---------------------0--------------5/7/5/8---|
G|--------------------0---------------------0---------------------0--------------3/5/3/6---|
C|--0--0--0-0-0-0-0-0-0--0--0--0-0-0-0-0-0--0--0--0--0-0-0-0-0-0--0--0--0--0-0-0-----------|
    .  .  . . . . . .    .  .  . . . . . .     .  .  . . . . . .     .  .  . . .

D|----------------------------------------------------------------------------|
F|----------------------------------------------------------------------------|
A|----------------------------------------------------------------------------|
C|---------------------0---------------------0---------------------0--6---5---|
G|---------------------0---------------------0---------------------0--6---5---|
C|--0--0--0-0-0-0-0-0--0--0--0--0-0-0-0-0-0--0--0--0--0-0-0-0-0-0--0--6---5---|
    .  .  . . . . . .     .  .  . . . . . .     .  .  . . . . . .


Bridge:

D|-----------------------------------------------------------------------------------------|
F|-----------------------------------------------------------------------------------------|
A|-----------------------------------------------------------------------------------------|
C|--------------------0---------------------0---------------------0--------------5/7/5/8---|
G|--------------------0---------------------0---------------------0--------------3/5/3/6---|
C|--0--0--0-0-0-0-0-0-0--0--0--0-0-0-0-0-0--0--0--0--0-0-0-0-0-0--0--0--0--0-0-0-----------|
    .  .  . . . . . .    .  .  . . . . . .     .  .  . . . . . .     .  .  . . .

D|----------------------------------------------------------------------------|
F|----------------------------------------------------------------------------|
A|----------------------------------------------------------------------------|
C|---------------------0---------------------0---------------------0--6---5---|
G|---------------------0---------------------0---------------------0--6---5---|
C|--0--0--0-0-0-0-0-0--0--0--0--0-0-0-0-0-0--0--0--0--0-0-0-0-0-0--0--6---5---|
    .  .  . . . . . .     .  .  . . . . . .     .  .  . . . . . .


Pre-Chorus:

D|---------------------------------------------------------|
F|---------------------------------------------------------|
A|---------------------------------------------------------|
C|--8-8-8-8-8-8-8-8-8-8-8-8-8-8-8-8-7-7-7-7-7-7-7-7-6--5---|
G|--8-8-8-8-8-8-8-8-8-8-8-8-8-8-8-8-7-7-7-7-7-7-7-7-6--5---|
C|--8-8-8-8-8-8-8-8-8-8-8-8-8-8-8-8-7-7-7-7-7-7-7-7-6--5---|


Chorus:

D|-----------------------------------------------------------------------------------------|
F|-----------------------------------------------------------------------------------------|
A|-----------------------------------------------------------------------------------------|
C|--------------------0---------------------0---------------------0--------------5/7/5/8---|
G|--------------------0---------------------0---------------------0--------------3/5/3/6---|
C|--0--0--0-0-0-0-0-0-0--0--0--0-0-0-0-0-0--0--0--0--0-0-0-0-0-0--0--0--0--0-0-0-----------|
    .  .  . . . . . .    .  .  . . . . . .     .  .  . . . . . .     .  .  . . .

D|----------------------------------------------------------------------------|
F|----------------------------------------------------------------------------|
A|----------------------------------------------------------------------------|
C|---------------------0---------------------0---------------------0--6---5---|
G|---------------------0---------------------0---------------------0--6---5---|
C|--0--0--0-0-0-0-0-0--0--0--0--0-0-0-0-0-0--0--0--0--0-0-0-0-0-0--0--6---5---|
    .  .  . . . . . .     .  .  . . . . . .     .  .  . . . . . .


Outro:

D|------------------------------------------------------------------------------------|
F|------------------------------------------------------------------------------------|
A|------------------------------------------------------------------------------------|
C|-----------------------------------6--5---6--5---6--5---6--5---6--5---6--5---6--5---|
G|-----------------------------------6--5---6--5---6--5---6--5---6--5---6--5---6--5---|
C|---0--(pick as much as you hear)---6--5---6--5---6--5---6--5---6--5---6--5---6--5---|
     .


4. Come Out And Plague


Intro:

A#|-----------------------------------------------------|
A chord diagramG MajorG |-----------------------------------------------------|
D#|--7-7---------7-7---------7-7------------------------|
A#|--7-7--x-x-x--7-7--x-x-x--7-7--x-x-x--x-x-x--x-x-x---|
A chord diagramFF |--5-5--x-x-x--5-5--x-x-x--5-5--x-x-x--x-x-x--x-x-x---|
A#|-------x-x-x-------x-x-x-------x-x-x--x-x-x--x-x-x---|(x3)

A#|------------------------------|
A chord diagramG MajorG |------------------------------|
D#|--7-7---------7-7---------7---|
A#|--7-7--x-x-x--7-7--x-x-x--7---|
A chord diagramFF |--5-5--x-x-x--5-5--x-x-x--5---|
A#|-------x-x-x-------x-x-x------|


Verse:

A#|---------------------------------------------------------------------------------------------|
A chord diagramG MajorG |---------------------------------------------------------------------------------------------|
D#|---------------------------------------------------------------------------------------------|
A#|---------------------------------------------------------------------------------------------|
A chord diagramFF |--------5h4------------------------------------------5h4-------------------------------------|
A#|--0-0-0-----5h4--3b--0-0-0-0-0-0-0-0-0-0-0-0---0-0-0-----5h4--3b--0-0-0-0-0-0--3h5-5-3h5-5---|(x2)
     . . .              . . . . . . . . . . . .   . . .              . . . . . .

A#|--------------------------------------------------------|
A chord diagramG MajorG |--------------------------------------------------------|
D#|----------------7-7-7-7-7-7-----------------------------|
A#|---0-0-0-0-0-0--7-7-7-7-7-7--0-0-0-0-0-0--3-3-3-3-3-3---|
A chord diagramFF |---0-0-0-0-0-0--5-5-5-5-5-5--0-0-0-0-0-0--3-3-3-3-3-3---|
A#|---0-0-0-0-0-0---------------0-0-0-0-0-0--3-3-3-3-3-3---|(x4)
      . . . . . .               . . . . . .


Pre-Chorus:

A#|---------------------------------------------------------------------------------------------|
A chord diagramG MajorG |---------------------------------------------------------------------------------------------|
D#|---------------------------------------------------------------------------------------------|
A#|---------------------------------------------------------------------------------------------|
A chord diagramFF |--------5h4------------------------------------------5h4-------------------------------------|
A#|--0-0-0-----5h4--3b--0-0-0-0-0-0-0-0-0-0-0-0---0-0-0-----5h4--3b--0-0-0-0-0-0--3h5-5-3h5-5---|(x2)
     . . .              . . . . . . . . . . . .   . . .              . . . . . .


Chorus:

A#|-------------------------------------------------------|
A chord diagramG MajorG |-------------------------------------------------------|
D#|-------------------------------------------------------|
A#|--0--0--0-0-0--0--0--0-0-0--0--0--0-0-0--0--0--0-0-0---|
A chord diagramFF |--0--0--0-0-0--0--0--0-0-0--0--0--0-0-0--0--0--0-0-0---|
A#|--0--0--0-0-0--0--0--0-0-0--0--0--0-0-0--0--0--0-0-0---|
          . . .        . . .        . . .        . . .

A#|-------------------------------------------------------|
A chord diagramG MajorG |-------------------------------------------------------|
D#|-------------------------------------------------------|
A#|--3--3--3-3-3--3--3--3-3-3--3--3--3-3-3--3--3--3-3-3---|
A chord diagramFF |--3--3--3-3-3--3--3--3-3-3--3--3--3-3-3--3--3--3-3-3---|
A#|--3--3--3-3-3--3--3--3-3-3--3--3--3-3-3--3--3--3-3-3---|
          . . .        . . .        . . .        . . .

A#|-------------------------------------------------------|
A chord diagramG MajorG |-------------------------------------------------------|
D#|-------------------------------------------------------|
A#|--5--5--5-5-5--5--5--5-5-5--3--3--3-3-3--3--3--3-3-3---|
A chord diagramFF |--5--5--5-5-5--5--5--5-5-5--3--3--3-3-3--3--3--3-3-3---|
A#|--5--5--5-5-5--5--5--5-5-5--3--3--3-3-3--3--3--3-3-3---|
          . . .        . . .        . . .        . . .

A#|-----------------------------|
A chord diagramG MajorG |-----------------------------|
D#|-----------------------------|
A#|--0--0--0-0-0--0--0--0-0-0---|
A chord diagramFF |--0--0--0-0-0--0--0--0-0-0---|
A#|--0--0--0-0-0--0--0--0-0-0---|
          . . .        . . .

A#|---------------------------------|
A chord diagramG MajorG |---------------------------------|
D#|---------------------------------|
A#|---------------------------------|
A chord diagramFF |--3h5-5-5-5h3h0--3h5-5-5-5h3h0---|
A#|---------------------------------|(x2)



Verse:

A#|---------------------------------------------------------------------------------------------|
A chord diagramG MajorG |---------------------------------------------------------------------------------------------|
D#|---------------------------------------------------------------------------------------------|
A#|---------------------------------------------------------------------------------------------|
A chord diagramFF |--------5h4------------------------------------------5h4-------------------------------------|
A#|--0-0-0-----5h4--3b--0-0-0-0-0-0-0-0-0-0-0-0---0-0-0-----5h4--3b--0-0-0-0-0-0--3h5-5-3h5-5---|(x2)
     . . .              . . . . . . . . . . . .   . . .              . . . . . .

A#|--------------------------------------------------------|
A chord diagramG MajorG |--------------------------------------------------------|
D#|----------------7-7-7-7-7-7-----------------------------|
A#|---0-0-0-0-0-0--7-7-7-7-7-7--0-0-0-0-0-0--3-3-3-3-3-3---|
A chord diagramFF |---0-0-0-0-0-0--5-5-5-5-5-5--0-0-0-0-0-0--3-3-3-3-3-3---|
A#|---0-0-0-0-0-0---------------0-0-0-0-0-0--3-3-3-3-3-3---|(x4)
      . . . . . .               . . . . . .


Pre-Chorus:

A#|---------------------------------------------------------------------------------------------|
A chord diagramG MajorG |---------------------------------------------------------------------------------------------|
D#|---------------------------------------------------------------------------------------------|
A#|---------------------------------------------------------------------------------------------|
A chord diagramFF |--------5h4------------------------------------------5h4-------------------------------------|
A#|--0-0-0-----5h4--3b--0-0-0-0-0-0-0-0-0-0-0-0---0-0-0-----5h4--3b--0-0-0-0-0-0--3h5-5-3h5-5---|(x2)
     . . .              . . . . . . . . . . . .   . . .              . . . . . .


Chorus:

A#|-------------------------------------------------------|
A chord diagramG MajorG |-------------------------------------------------------|
D#|-------------------------------------------------------|
A#|--0--0--0-0-0--0--0--0-0-0--0--0--0-0-0--0--0--0-0-0---|
A chord diagramFF |--0--0--0-0-0--0--0--0-0-0--0--0--0-0-0--0--0--0-0-0---|
A#|--0--0--0-0-0--0--0--0-0-0--0--0--0-0-0--0--0--0-0-0---|
          . . .        . . .        . . .        . . .

A#|-------------------------------------------------------|
A chord diagramG MajorG |-------------------------------------------------------|
D#|-------------------------------------------------------|
A#|--3--3--3-3-3--3--3--3-3-3--3--3--3-3-3--3--3--3-3-3---|
A chord diagramFF |--3--3--3-3-3--3--3--3-3-3--3--3--3-3-3--3--3--3-3-3---|
A#|--3--3--3-3-3--3--3--3-3-3--3--3--3-3-3--3--3--3-3-3---|
          . . .        . . .        . . .        . . .

A#|-------------------------------------------------------|
A chord diagramG MajorG |-------------------------------------------------------|
D#|-------------------------------------------------------|
A#|--5--5--5-5-5--5--5--5-5-5--3--3--3-3-3--3--3--3-3-3---|
A chord diagramFF |--5--5--5-5-5--5--5--5-5-5--3--3--3-3-3--3--3--3-3-3---|
A#|--5--5--5-5-5--5--5--5-5-5--3--3--3-3-3--3--3--3-3-3---|
          . . .        . . .        . . .        . . .

A#|-----------------------------|
A chord diagramG MajorG |-----------------------------|
D#|-----------------------------|
A#|--0--0--0-0-0--0--0--0-0-0---|
A chord diagramFF |--0--0--0-0-0--0--0--0-0-0---|
A#|--0--0--0-0-0--0--0--0-0-0---|
          . . .        . . .

A#|---------------------------------|
A chord diagramG MajorG |---------------------------------|
D#|---------------------------------|
A#|---------------------------------|
A chord diagramFF |--3h5-5-5-5h3h0--3h5-5-5-5h3h0---|
A#|---------------------------------|(x2)


Bridge:

A#|------------------------------|
A chord diagramG MajorG |------------------------------|
D#|------------------------------|
A#|--0-------0-------0-------0---|
A chord diagramFF |--0-------0-------0-------0---|
A#|--0-------0-------0-------0---|


A#|----------------------------------------------------------------------|
A chord diagramG MajorG |----------------------------------------------------------------------|
D#|----------------------------------------------------------------------|
A#|----------------------------------------------------------------------|
A chord diagramFF |----------------------------------------------------------------------|
A#|--0-0-0--0-0-0--12-12-12-12-12-12--0-0-0--0-0-0--13-13-13--10-10-10---|

A#|--------------------------------------------------------------------|
G-|--------------------------------------------------------------------|
D#|--------------------------------------------------------------------|
A#|--------------------------------------------------------------------|
F-|--------------------------------------------------------------------|
A#|--0-0-0--0-0-0--12-12-12-12-12-12--3-3-3-3-3-3--10-10-10-10-10-10---|(x4)

A#|------|
A chord diagramG MajorG |------|
D#|------|
A#|--0---|
A chord diagramFF |--0---|
A#|--0---|


Chorus:

A#|-------------------------------------------------------|
A chord diagramG MajorG |-------------------------------------------------------|
D#|-------------------------------------------------------|
A#|--0--0--0-0-0--0--0--0-0-0--0--0--0-0-0--0--0--0-0-0---|
A chord diagramFF |--0--0--0-0-0--0--0--0-0-0--0--0--0-0-0--0--0--0-0-0---|
A#|--0--0--0-0-0--0--0--0-0-0--0--0--0-0-0--0--0--0-0-0---|
           . . .        . . .        . . .        . . .

A#|-------------------------------------------------------|
A chord diagramG MajorG |-------------------------------------------------------|
D#|-------------------------------------------------------|
A#|--3--3--3-3-3--3--3--3-3-3--3--3--3-3-3--3--3--3-3-3---|
A chord diagramFF |--3--3--3-3-3--3--3--3-3-3--3--3--3-3-3--3--3--3-3-3---|
A#|--3--3--3-3-3--3--3--3-3-3--3--3--3-3-3--3--3--3-3-3---|
           . . .        . . .        . . .        . . .

A#|-------------------------------------------------------|
A chord diagramG MajorG |-------------------------------------------------------|
D#|-------------------------------------------------------|
A#|--5--5--5-5-5--5--5--5-5-5--3--3--3-3-3--3--3--3-3-3---|
A chord diagramFF |--5--5--5-5-5--5--5--5-5-5--3--3--3-3-3--3--3--3-3-3---|
A#|--5--5--5-5-5--5--5--5-5-5--3--3--3-3-3--3--3--3-3-3---|
           . . .        . . .        . . .        . . .

A#|-----------------------------|
A chord diagramG MajorG |-----------------------------|
D#|-----------------------------|
A#|--0--0--0-0-0--0--0--0-0-0---|
A chord diagramFF |--0--0--0-0-0--0--0--0-0-0---|
A#|--0--0--0-0-0--0--0--0-0-0---|
           . . .        . . .

A#|---------------------------------|
A chord diagramG MajorG |---------------------------------|
D#|---------------------------------|
A#|---------------------------------|
A chord diagramFF |--3h5-5-5-5h3h0--3h5-5-5-5h3h0---|
A#|---------------------------------|(x2)


Outro:

A#|---------------------------------------------------------------------------------------------|
A chord diagramG MajorG |---------------------------------------------------------------------------------------------|
D#|---------------------------------------------------------------------------------------------|
A#|---------------------------------------------------------------------------------------------|
A chord diagramFF |--------5h4------------------------------------------5h4-------------------------------------|
A#|--0-0-0-----5h4--3b--0-0-0-0-0-0-0-0-0-0-0-0---0-0-0-----5h4--3b--0-0-0-0-0-0--3h5-5-3h5-5---|(x2)
     . . .              . . . . . . . . . . . .   . . .              . . . . . .

A#|------|
A chord diagramG MajorG |------|
D#|------|
A#|--0---|
A chord diagramFF |--0---|
A#|--0---|


5. I Ain't Got Time To Bleed


Intro:

D|----------------------------------------------------------------|
A|----------------------------------------------------------------|
F|----------------------------------------------------------------|
C|--0---5-5-5-5-4--4--4---3----5-----0---5-5-5-5-4---4---3----5---|
G|--0---------------------3----5-----0-------------------3----5---|
C|--0---------------------3----5-----0-------------------3----5---|


D|----------------------------------------------------------------|
A|----------------------------------------------------------------|
F|----------------------------------------------------------------|
C|--0---5-5-5-5-4--4--4--4-4-4---3--3-3--3-3-3--5--5-5------------|
G|--0----------------------------3--3-3--3-3-3--5--5-5--------3---|
C|--0----------------------------3--3-3--3-3-3--5--5-5--0-3-5-----|


D|------------------------------------------------------------------|
A|------------------------------------------------------------------|
F|------------------------------------------------------------------|
C|--0---5-5-5-5-4--4--4--4-4-4---3--3-3--3-3-3--5--5-5--------------|
G|--0----------------------------3--3-3--3-3-3--5--5-5--------3-----|
C|--0----------------------------3--3-3--3-3-3--5--5-5--0-3-5---0---|


Verse:

D|---------------------------------|
A|---------------------------------|
F|--------------------------7--7---|
C|--6-------------------0---7--7---|
G|--6-------------------0---5--5---|
C|--6-5-0-5-3-0-3-5-5-5-0----------|(x3)
      . . . . . . . . .

D|---------------------------------|
A|---------------------------------|
F|---------------------------------|
C|--6-------------------0--0-0-0---|
G|--6-------------------0--0-0-0---|
C|--6-5-0-5-3-0-3-5-5-5-0--0-0-0---|
      . . . . . . . . .    . . .

D|-------------------------------------------------------|
A|-------------------------------------------------------|
F|-------------------------------------------------------|
C|--0-0-0-0-0-0-0-0-0-0-0-0-0-0-0-0--6~---5~---3~---5~---|
G|--0-0-0-0-0-0-0-0-0-0-0-0-0-0-0-0----------------------|
C|--0-0-0-0-0-0-0-0-0-0-0-0-0-0-0-0----------------------|(x2)
      . . . . . . . . . . . . . . .


Pre-Chorus:

D|---------------------------------------------------------------|
A|---------------------------------------------------------------|
F|---------------------------------------------------------------|
C|--3---3---3--3-3-3-3--3-3-3--2---2---2-2-2-2-------------------|
G|--3---3---3--3-3-3-3--3-3-3--2---2---2-2-2-2-------------3-----|
C|--3---3---3--3-3-3-3--3-3-3--2---2---2-2-2-2---5-5-0-3-5---0---|


Chorus:

D|----------------------------------------------------------------|
A|----------------------------------------------------------------|
F|----------------------------------------------------------------|
C|--0---5-5-5-5-4--4--4--4-4-4---3--3-3--3-3-3--5--5-5------------|
G|--0----------------------------3--3-3--3-3-3--5--5-5--------3---|
C|--0----------------------------3--3-3--3-3-3--5--5-5--0-3-5-----|(x3)

D|-------------------------------------------------------------------|
A|-------------------------------------------------------------------|
F|-------------------------------------------------------------------|
C|--0---5-5-5-5-4--4--4--4-4-4---3--3-3--3-3-3--5--5-5-----------0---|
G|--0----------------------------3--3-3--3-3-3--5--5-5--------3--0---|
C|--0----------------------------3--3-3--3-3-3--5--5-5--0-3-5----0---|


Verse:

D|---------------------------------|
A|---------------------------------|
F|--------------------------7--7---|
C|--6-------------------0---7--7---|
G|--6-------------------0---5--5---|
C|--6-5-0-5-3-0-3-5-5-5-0----------|(x3)
      . . . . . . . . .

D|---------------------------------|
A|---------------------------------|
F|---------------------------------|
C|--6-------------------0--0-0-0---|
G|--6-------------------0--0-0-0---|
C|--6-5-0-5-3-0-3-5-5-5-0--0-0-0---|
      . . . . . . . . .    . . .

D|-------------------------------------------------------|
A|-------------------------------------------------------|
F|-------------------------------------------------------|
C|--0-0-0-0-0-0-0-0-0-0-0-0-0-0-0-0--6~---5~---3~---5~---|
G|--0-0-0-0-0-0-0-0-0-0-0-0-0-0-0-0----------------------|
C|--0-0-0-0-0-0-0-0-0-0-0-0-0-0-0-0----------------------|(x2)
      . . . . . . . . . . . . . . .


Pre-Chorus:

D|---------------------------------------------------------------|
A|---------------------------------------------------------------|
F|---------------------------------------------------------------|
C|--3---3---3--3-3-3-3--3-3-3--2---2---2-2-2-2-------------------|
G|--3---3---3--3-3-3-3--3-3-3--2---2---2-2-2-2-------------3-----|
C|--3---3---3--3-3-3-3--3-3-3--2---2---2-2-2-2---5-5-0-3-5---0---|


Chorus:


D|----------------------------------------------------------------|
A|----------------------------------------------------------------|
F|----------------------------------------------------------------|
C|--0---5-5-5-5-4--4--4--4-4-4---3--3-3--3-3-3--5--5-5------------|
G|--0----------------------------3--3-3--3-3-3--5--5-5--------3---|
C|--0----------------------------3--3-3--3-3-3--5--5-5--0-3-5-----|(x3)

D|-------------------------------------------------------------------|
A|-------------------------------------------------------------------|
F|-------------------------------------------------------------------|
C|--0---5-5-5-5-4--4--4--4-4-4---3--3-3--3-3-3--5--5-5-----------0---|
G|--0----------------------------3--3-3--3-3-3--5--5-5--------3--0---|
C|--0----------------------------3--3-3--3-3-3--5--5-5--0-3-5----0---|


Bridge:

D|--------------------------------|
A|--------------------------------|
F|--------------------------------|
C|--3--------5-------5-5--5-5-5---|
G|--3--------5-------5-5--5-5-5---|
C|--3--------5-------5-5--5-5-5---|(x3)


D|-------------------------|
A|-------------------------|
F|-------------------------|
C|--3----7-7-7-7-7-7-7-7---|
G|--3----7-7-7-7-7-7-7-7---|
C|--3----7-7-7-7-7-7-7-7---|


D|----------------------------------------------------------------|
A|----------------------------------------------------------------|
F|----------------------------------------------------------------|
C|--0---5-5-5-5-4--4--4--4-4-4---3--3-3--3-3-3--5--5-5------------|
G|--0----------------------------3--3-3--3-3-3--5--5-5--------3---|
C|--0----------------------------3--3-3--3-3-3--5--5-5--0-3-5-----|(x4)


D|--------------------------------------------------------------|
A|--------------------------------------------------------------|
F|--------------------------------------------------------------|
C|--0---5-5-5-5-4--4--4--4-4-4---3--3-3--3-3-3--5--5-5--5-5-5---|
G|--0----------------------------3--3-3--3-3-3--5--5-5--5-5-5---|
C|--0----------------------------3--3-3--3-3-3--5--5-5--5-5-5---|(x2)


Chorus:

D|----------------------------------------------------------------|
A|----------------------------------------------------------------|
F|----------------------------------------------------------------|
C|--0---5-5-5-5-4--4--4--4-4-4---3--3-3--3-3-3--5--5-5------------|
G|--0----------------------------3--3-3--3-3-3--5--5-5--------3---|
C|--0----------------------------3--3-3--3-3-3--5--5-5--0-3-5-----|(x3)

D|-------------------------------------------------------------------|
A|-------------------------------------------------------------------|
F|-------------------------------------------------------------------|
C|--0---5-5-5-5-4--4--4--4-4-4---3--3-3--3-3-3--5--5-5-----------0---|
G|--0----------------------------3--3-3--3-3-3--5--5-5--------3--0---|
C|--0----------------------------3--3-3--3-3-3--5--5-5--0-3-5----0---|


Outro:

D|---------------------------------|
A|---------------------------------|
F|--------------------------7--7---|
C|--6-------------------0---7--7---|
G|--6-------------------0---5--5---|
C|--6-5-0-5-3-0-3-5-5-5-0----------| (x3)
      . . . . . . . . .

D|------------------------------------|
A|------------------------------------|
F|------------------------------------|
C|--6-------------------0--0-0-0--0---|
G|--6-------------------0--0-0-0--0---|
C|--6-5-0-5-3-0-3-5-5-5-0--0-0-0--0---|
      . . . . . . . . .    . . .


6. Bloodline 666


There is no guitar in this song:



7. Serpent Society



Intro/Verse:

C#|-------------------------------------------------------------------|
G#|-------------------------------------------------------------------|
A chord diagramE MajorE |-------------------------------------------------------------------|
A chord diagramBB |---6/8-8-8-8-8-8-8-8-8-8-8-8-8-8-9-8-8-8-8-8-8-8-8-8-8-8-8-8-8-8---|
F#|---6/8-8-8-8-8-8-8-8-8-8-8-8-8-8-9-8-8-8-8-8-8-8-8-8-8-8-8-8-8-8---|
A chord diagramBB |---6/8-8-8-8-8-8-8-8-8-8-8-8-8-8-9-8-8-8-8-8-8-8-8-8-8-8-8-8-8-8---|(x6)


Chorus:

C#|-----------------------------------------------------|
G#|-----------------------------------------------------|
A chord diagramE MajorE |-----------------------------------------------------|
A chord diagramBB |---4-4-4-4-4-4-4-4-4-4-4-4-4-4-4-4-4-4-4-4-6-6-6-6---|
F#|---4-4-4-4-4-4-4-4-4-4-4-4-4-4-4-4-4-4-4-4-6-6-6-6---|
B-|---4-4-4-4-4-4-4-4-4-4-4-4-4-4-4-4-4-4-4-4-6-6-6-6---|

C#|-------------------------------------------------------------------|
G#|-------------------------------------------------------------------|
A chord diagramE MajorE |-------------------------------------------------------------------|
A chord diagramBB |---6/8-8-8-8-8-8-8-8-8-8-8-8-8-8-9-8-8-8-8-8-8-8-8-8-8-8-8-8-8-8---|
F#|---6/8-8-8-8-8-8-8-8-8-8-8-8-8-8-9-8-8-8-8-8-8-8-8-8-8-8-8-8-8-8---|
B-|---6/8-8-8-8-8-8-8-8-8-8-8-8-8-8-9-8-8-8-8-8-8-8-8-8-8-8-8-8-8-8---|

C#|-----------------------------------------------------|
G#|-----------------------------------------------------|
A chord diagramE MajorE |-----------------------------------------------------|
A chord diagramBB |---4-4-4-4-4-4-4-4-4-4-4-4-4-4-4-4-4-4-4-4-6-6-6-6---|
F#|---4-4-4-4-4-4-4-4-4-4-4-4-4-4-4-4-4-4-4-4-6-6-6-6---|
A chord diagramBB |---4-4-4-4-4-4-4-4-4-4-4-4-4-4-4-4-4-4-4-4-6-6-6-6---|

C#|------------------------------------------------------|
G#|------------------------------------------------------|
A chord diagramE MajorE |------------------------------------------------------|
A chord diagramBB |---3-3-3-3-3-3-3-3-3-3-3-3-3-3-3-3-3-3-3-3--6-6-6-6---|
F#|---3-3-3-3-3-3-3-3-3-3-3-3-3-3-3-3-3-3-3-3--6-6-6-6---|
A chord diagramBB |---3-3-3-3-3-3-3-3-3-3-3-3-3-3-3-3-3-3-3-3--6-6-6-6---|


C#|-----------------------------------------------------------------------------|
G#|-----------------------------------------------------------------------------|
A chord diagramE MajorE |-----------------------------------------------------------------------------|
A chord diagramBB |---6/8-8-8-8-8-8-8-8-8-8-8-8-8-8-9-8-8-8-8-11-11-11-11-10-10-10-10-9-9-9-9---|
F#|---6/8-8-8-8-8-8-8-8-8-8-8-8-8-8-9-8-8-8-8-11-11-11-11-10-10-10-10-9-9-9-9---|
A chord diagramBB |---6/8-8-8-8-8-8-8-8-8-8-8-8-8-8-9-8-8-8-8-11-11-11-11-10-10-10-10-9-9-9-9---|(4x)


Bridge:

C#|-----------------------------|
G#|-----------------------------|
A chord diagramE MajorE |-----------------------------|
A chord diagramBB |---0-0--2--3--0-2-3---5/8b---|
F#|---0-0--2--3--0-2-3----------|
A chord diagramBB |---0-0--2--3--0-2-3----------|(x3)
      . .        .

C#|--------------------------------|
G#|--------------------------------|
A chord diagramE MajorE |--------------------------------|
A chord diagramBB |---0-0--2--3--0-2-3-------------|
F#|---0-0--2--3--0-2-3-------------|
A chord diagramBB |---0-0--2--3--0-2-3---2/1/2/1---|
      . .        .

C#|-----------------------------|
G#|-----------------------------|
A chord diagramE MajorE |-----------------------------|
A chord diagramBB |---0-0--2--3--0-2-3---5/8b---|
F#|---0-0--2--3--0-2-3----------|
A chord diagramBB |---0-0--2--3--0-2-3----------|(x3)
      . .        .

C#|--------------------------------|
G#|--------------------------------|
A chord diagramE MajorE |--------------------------------|
A chord diagramBB |---0-0--2--3--0-2-3-------------|
F#|---0-0--2--3--0-2-3-------------|
A chord diagramBB |---0-0--2--3--0-2-3---2/1/2/1---|
      . .        .

C#|-----------------------------|
G#|-----------------------------|
A chord diagramE MajorE |-----------------------------|
A chord diagramBB |---0-0--2--3--0-2-3---5/8b---|
F#|---0-0--2--3--0-2-3----------|
A chord diagramBB |---0-0--2--3--0-2-3----------|(x3)
      . .        .

C#|--------------------------------|
G#|--------------------------------|
A chord diagramE MajorE |--------------------------------|
A chord diagramBB |---0-0--2--3--0-2-3-------------|
F#|---0-0--2--3--0-2-3-------------|
A chord diagramBB |---0-0--2--3--0-2-3---2/1/2/1---|
      . .        .


Chorus:

C#|-----------------------------------------------------|
G#|-----------------------------------------------------|
A chord diagramE MajorE |-----------------------------------------------------|
A chord diagramBB |---4-4-4-4-4-4-4-4-4-4-4-4-4-4-4-4-4-4-4-4-6-6-6-6---|
F#|---4-4-4-4-4-4-4-4-4-4-4-4-4-4-4-4-4-4-4-4-6-6-6-6---|
B-|---4-4-4-4-4-4-4-4-4-4-4-4-4-4-4-4-4-4-4-4-6-6-6-6---|

C#|-------------------------------------------------------------------|
G#|-------------------------------------------------------------------|
A chord diagramE MajorE |-------------------------------------------------------------------|
A chord diagramBB |---6/8-8-8-8-8-8-8-8-8-8-8-8-8-8-9-8-8-8-8-8-8-8-8-8-8-8-8-8-8-8---|
F#|---6/8-8-8-8-8-8-8-8-8-8-8-8-8-8-9-8-8-8-8-8-8-8-8-8-8-8-8-8-8-8---|
B-|---6/8-8-8-8-8-8-8-8-8-8-8-8-8-8-9-8-8-8-8-8-8-8-8-8-8-8-8-8-8-8---|

C#|-----------------------------------------------------|
G#|-----------------------------------------------------|
A chord diagramE MajorE |-----------------------------------------------------|
A chord diagramBB |---4-4-4-4-4-4-4-4-4-4-4-4-4-4-4-4-4-4-4-4-6-6-6-6---|
F#|---4-4-4-4-4-4-4-4-4-4-4-4-4-4-4-4-4-4-4-4-6-6-6-6---|
A chord diagramBB |---4-4-4-4-4-4-4-4-4-4-4-4-4-4-4-4-4-4-4-4-6-6-6-6---|

C#|------------------------------------------------------|
G#|------------------------------------------------------|
A chord diagramE MajorE |------------------------------------------------------|
A chord diagramBB |---3-3-3-3-3-3-3-3-3-3-3-3-3-3-3-3-3-3-3-3--6-6-6-6---|
F#|---3-3-3-3-3-3-3-3-3-3-3-3-3-3-3-3-3-3-3-3--6-6-6-6---|
A chord diagramBB |---3-3-3-3-3-3-3-3-3-3-3-3-3-3-3-3-3-3-3-3--6-6-6-6---|


Outro:

C#|-----------------------------------------------------------------------------|
G#|-----------------------------------------------------------------------------|
A chord diagramE MajorE |-----------------------------------------------------------------------------|
A chord diagramBB |---6/8-8-8-8-8-8-8-8-8-8-8-8-8-8-9-8-8-8-8-11-11-11-11-10-10-10-10-9-9-9-9---|
F#|---6/8-8-8-8-8-8-8-8-8-8-8-8-8-8-9-8-8-8-8-11-11-11-11-10-10-10-10-9-9-9-9---|
A chord diagramBB |---6/8-8-8-8-8-8-8-8-8-8-8-8-8-8-9-8-8-8-8-11-11-11-11-10-10-10-10-9-9-9-9---|(4x)



8. Bombs, Guns, Gods This Is A chord diagramA majorA War


Intro:

D|---------------------------------------|
A|---------------------------------------|
F|---------------------------------------|
C|--------0------------------------------|
G|------3--3-----------------------------|
C|--0-1------1---0---0-0--0-0-0--0-0-0---|(x3)
                     . .  . . .  . . .

D|--------------------------------------------|
A|--------------------------------------------|
F|--------------------------------------------|
C|--------0---------------------------6---5---|
G|------3--3--------------------------6---5---|
C|--0-1------1---0---0-0--0-0-0--0-0--6---5---|
                     . .  . . .  . .

Verse:

D|---------------------------------------|
A|---------------------------------------|
F|---------------------------------------|
C|--------0------------------------------|
G|------3--3-----------------------------|
C|--0-1------1---0---0-0--0-0-0--0-0-0---|(x2)
                     . .  . . .  . . .

D|--------------------------------------------|
A|--------------------------------------------|
F|--------------------------------------------|
C|--------0---------------------------6---5---|
G|------3--3--------------------------6---5---|
C|--0-1------1---0---0-0--0-0-0--0-0--6---5---|
                     . .  . . .  . .

Pre-Chorus:

D|----------------------------------------------------------------------------|
A|----------------------------------------------------------------------------|
F|----------------------------------------------------------------------------|
C|--3--3-3-3-3-3--3---3-3---3--3-3---5---5-5-5-5-5-5---6---6----6---6---6-6---|
G|--3--3-3-3-3-3--3---3-3---3--3-3---5---5-5-5-5-5-5---6---6----6---6---6-6---|
C|--3--3-3-3-3-3--3---3-3---3--3-3---5---5-5-5-5-5-5---6---6----6---6---6-6---|


Chorus:

D|---------------------|
A|---------------------|
F|---------------------|
C|--0----3----2----5---|
G|--0----3----2----5---|
C|--0----3----2----5---|(x3)


D|------------------------------------------------|
A|------------------------------------------------|
F|------------------------------------------------|
C|--0----3----2----5---5---5---5--5---5---5---5---|
G|--0----3----2----5---5---5---5--5---5---5---5---|
C|--0----3----2----5---5---5---5--5---5---5---5---|


Verse:

D|---------------------------------------|
A|---------------------------------------|
F|---------------------------------------|
C|--------0------------------------------|
G|------3--3-----------------------------|
C|--0-1------1---0---0-0--0-0-0--0-0-0---|(x3)
                     . .  . . .  . . .

D|--------------------------------------------|
A|--------------------------------------------|
F|--------------------------------------------|
C|--------0---------------------------6---5---|
G|------3--3--------------------------6---5---|
C|--0-1------1---0---0-0--0-0-0--0-0--6---5---|
                     . .  . . .  . .

D|---------------------------------------|
A|---------------------------------------|
F|---------------------------------------|
C|--------0------------------------------|
G|------3--3-----------------------------|
C|--0-1------1---0---0-0--0-0-0--0-0-0---|(x2)
                     . .  . . .  . . .

D|--------------------------------------------|
A|--------------------------------------------|
F|--------------------------------------------|
C|--------0---------------------------6---5---|
G|------3--3--------------------------6---5---|
C|--0-1------1---0---0-0--0-0-0--0-0--6---5---|
                     . .  . . .  . .


Pre-Chorus:

D|----------------------------------------------------------------------------|
A|----------------------------------------------------------------------------|
F|----------------------------------------------------------------------------|
C|--3--3-3-3-3-3--3---3-3---3--3-3---5---5-5-5-5-5-5---6---6----6---6---6-6---|
G|--3--3-3-3-3-3--3---3-3---3--3-3---5---5-5-5-5-5-5---6---6----6---6---6-6---|
C|--3--3-3-3-3-3--3---3-3---3--3-3---5---5-5-5-5-5-5---6---6----6---6---6-6---|


Chorus:

D|---------------------|
A|---------------------|
F|---------------------|
C|--0----3----2----5---|
G|--0----3----2----5---|
C|--0----3----2----5---|(x3)


D|------------------------------------------------|
A|------------------------------------------------|
F|------------------------------------------------|
C|--0----3----2----5---5---5---5--5---5---5---5---|
G|--0----3----2----5---5---5---5--5---5---5---5---|
C|--0----3----2----5---5---5---5--5---5---5---5---|


Bridge:

D|-------------|
A|-------------|
F|-------------|
C|--0------0---|
G|--0------0---|
C|--0------0---|


D|----------------------------------------------------------------------|
A|----------------------------------------------------------------------|
F|----------------------------------------------------------------------|
C|----------------------------------------------------------------------|
G|----------------------------------------------------3-3-3-3-3-3-3-3---|
C|--0-0-0-0-1-0-0-0-0-0-0-0-1-0-0-0--1-1-1-1-1-1-1-1--------------------|(x7)


D|-------------------------------------------|
A|-------------------------------------------|
F|-------------------------------------------|
C|-----------------------------------6---5---|
G|-----------------------------------6---5---|
C|--0-0-0-0-1-0-0-0-0-0-0-0-1-0-0-0--6---5---|


Pre-Chorus:

D|----------------------------------------------------------------------------|
A|----------------------------------------------------------------------------|
F|----------------------------------------------------------------------------|
C|--3--3-3-3-3-3--3---3-3---3--3-3---5---5-5-5-5-5-5---6---6----6---6---6-6---|
G|--3--3-3-3-3-3--3---3-3---3--3-3---5---5-5-5-5-5-5---6---6----6---6---6-6---|
C|--3--3-3-3-3-3--3---3-3---3--3-3---5---5-5-5-5-5-5---6---6----6---6---6-6---|


Chorus:

D|---------------------|
A|---------------------|
F|---------------------|
C|--0----3----2----5---|
G|--0----3----2----5---|
C|--0----3----2----5---|(x3)


D|------------------------------------------------|
A|------------------------------------------------|
F|------------------------------------------------|
C|--0----3----2----5---5---5---5--5---5---5---5---|
G|--0----3----2----5---5---5---5--5---5---5---5---|
C|--0----3----2----5---5---5---5--5---5---5---5---|


Outro:

D|-------------------|
A|-------------------|
F|-------------------|
C|--------0------0---|
G|------3--3-----0---|
C|--0-1------1---0---|



9. Planet Eater Interstellar 187


Intro:

D|------------------------------------------------------|
A|------------------------------------------------------|
F|------------------------------------------------------|
C|------------------------------------------------------|
G|------------------------------------------------------|
C|--0-12-13-0-16-13-12/13-------0-12-13-0-16-13-12/13---|

D|-----------------------------------------------------------------------------------------------|
A|-----------------------------------------------------------------------------------------------|
F|-----------------------------------------------------------------------------------------------|
C|-----------------------------------------------------------------------------------------------|
G|-----------------------------------------------------------------------------------------------|
C|--0-12-13-0-16-13-12/13--0-12-13-0-16-13-12/13--0-12-13-0-16-13-12/13--0-12-13-0-16-13-12/13---|


Verse:

D|-------------------------------------------------------------------------------------|
A|-------------------------------------------------------------------------------------|
F|-------------------------------------------------------------------------------------|
C|-------------------------------------------------------------------------------------|
G|-------------------------------------------------------------------------------------|
C|--7-7-7-7-7-7-7--6-6-6-6-6--3-3-3-3-3-3-3-3-3--6-6-6-6-6-6-6--2-2-2-2-2--3-3-3-3-3---|


D|--------------------------------------------------------------------|
A|--------------------------------------------------------------------|
F|--------------------------------------------------------------------|
C|--------------------------------------------------------------------|
G|--------------------------------------------------------------------|
C|--0-0-0-0-0-0-0-0--0-0-0--0-0-0-0-0-0-0-0--0-0-0--0-0-0-0-0-0-0-0---|
    . . . . . . . .  . . .  . . . . . . . .  . . .  . . . . . . . .

D|-----------------------------------------|
A|-----------------------------------------|
F|-----------------------------------------|
C|-----------------------------------------|
G|-------------------------------6-3-------|
C|--0-0-0--0-0-0-0-0-0-0-0-0-0-0-----6-3---|(x2)
    . . .  . . . . . . . . . . .


D|-------------------------------------------------------------------------------------|
A|-------------------------------------------------------------------------------------|
F|-------------------------------------------------------------------------------------|
C|-------------------------------------------------------------------------------------|
G|-------------------------------------------------------------------------------------|
C|--7-7-7-7-7-7-7--6-6-6-6-6--3-3-3-3-3-3-3-3-3--6-6-6-6-6-6-6--2-2-2-2-2--3-3-3-3-3---|(x2)


D|--------------------------------------------------------------------|
A|--------------------------------------------------------------------|
F|--------------------------------------------------------------------|
C|--------------------------------------------------------------------|
G|--------------------------------------------------------------------|
C|--0-0-0-0-0-0-0-0--0-0-0--0-0-0-0-0-0-0-0--0-0-0--0-0-0-0-0-0-0-0---|
    . . . . . . . .  . . .  . . . . . . . .  . . .  . . . . . . . .

D|-----------------------------------------|
A|-----------------------------------------|
F|-----------------------------------------|
C|-----------------------------------------|
G|-------------------------------6-3-------|
C|--0-0-0--0-0-0-0-0-0-0-0-0-0-0-----6-3---|(x2)
    . . .  . . . . . . . . . . .


Pre-Chorus:

D|-------------------------------------------------------------------------------------|
A|-------------------------------------------------------------------------------------|
F|-------------------------------------------------------------------------------------|
C|-------------------------------------------------------------------------------------|
G|-------------------------------------------------------------------------------------|
C|--7-7-7-7-7-7-7--6-6-6-6-6--3-3-3-3-3-3-3-3-3--6-6-6-6-6-6-6--2-2-2-2-2--3-3-3-3-3---| (x2)


Chorus:


D|------------------------------------------------------------------|
A|------------------------------------------------------------------|
F|------------------------------------------------------------------|
C|--0-0-1--4---0-1-0-1--4--1---0-0-1--4--0--------------------------|
G|--0-0-1--4---0-1-0-1--4--1---0-0-1--4--0--------------------------|
C|--0-0-1--4---0-1-0-1--4--1---0-0-1--4--0--0-12-13-0-16-13-12/13---| (x4)
    . .        .   .           . .       .

D|------------------------------------------------------------------------|
A|------------------------------------------------------------------------|
F|------------------------------------------------------------------------|
C|------------------------------------------------------------------------|
G|------------------------------------------------------------------------|
C|--0-12-13-0-16-13-12/13--0-12-13-0-16-13-12/13--0-12-13-0-16-13-12/13---|


Bridge:


D|------------------------------------------------------------------|
A|------------------------------------------------------------------|
F|------------------------------------------------------------------|
C|--0-0-1--4---0-1-0-1--4--1---0-0-1--4--0--------------------------|
G|--0-0-1--4---0-1-0-1--4--1---0-0-1--4--0--------------------------|
C|--0-0-1--4---0-1-0-1--4--1---0-0-1--4--0--0-12-13-0-16-13-12/13---| (x4)
    . .        .   .           . .       .

D|------------------------------------------------------------------------|
A|------------------------------------------------------------------------|
F|------------------------------------------------------------------------|
C|------------------------------------------------------------------------|
G|------------------------------------------------------------------------|
C|--0-12-13-0-16-13-12/13--0-12-13-0-16-13-12/13--0-12-13-0-16-13-12/13---|

D|-------------|
A|-------------|
F|-------------|
C|--7--6--3~---|
G|-------------|
C|-------------|


Pre-Chorus:


D|-------------------------------------------------------------------------------------|
A|-------------------------------------------------------------------------------------|
F|-------------------------------------------------------------------------------------|
C|-------------------------------------------------------------------------------------|
G|-------------------------------------------------------------------------------------|
C|--7-7-7-7-7-7-7--6-6-6-6-6--3-3-3-3-3-3-3-3-3--6-6-6-6-6-6-6--2-2-2-2-2--3-3-3-3-3---| (x2)


Chorus:


D|------------------------------------------------------------------|
A|------------------------------------------------------------------|
F|------------------------------------------------------------------|
C|--0-0-1--4---0-1-0-1--4--1---0-0-1--4--0--------------------------|
G|--0-0-1--4---0-1-0-1--4--1---0-0-1--4--0--------------------------|
C|--0-0-1--4---0-1-0-1--4--1---0-0-1--4--0--0-12-13-0-16-13-12/13---| (x4)
    . .        .   .           . .       .

D|------------------------------------------------------------------------|
A|------------------------------------------------------------------------|
F|------------------------------------------------------------------------|
C|------------------------------------------------------------------------|
G|------------------------------------------------------------------------|
C|--0-12-13-0-16-13-12/13--0-12-13-0-16-13-12/13--0-12-13-0-16-13-12/13---|


Outro:


D|--------------------------------------------------------------------|
A|--------------------------------------------------------------------|
F|--------------------------------------------------------------------|
C|--7-7-7-7-6-6-6-6-3-3-3-3-3-3-3-3-6-6-6-6-6-6-6-6-2-2-2-2-3-3-3-3---|
G|--7-7-7-7-6-6-6-6-3-3-3-3-3-3-3-3-6-6-6-6-6-6-6-6-2-2-2-2-3-3-3-3---|
C|--7-7-7-7-6-6-6-6-3-3-3-3-3-3-3-3-6-6-6-6-6-6-6-6-2-2-2-2-3-3-3-3---|
      . . .   . . .   . . .   . . .   . . .   . . .   . . .   . . .

D|------------------------------------------------------------------------|
A|------------------------------------------------------------------------|
F|------------------------------------------------------------------------|
C|--7-7-7-7-6-6-6-6-3-3-3-3-3-3-3-3-6-6-6-6-6-6-6-6--6-6-6--6-6-6-6-6-6---|
G|--7-7-7-7-6-6-6-6-3-3-3-3-3-3-3-3-6-6-6-6-6-6-6-6--6-6-6--6-6-6-6-6-6---|
C|--7-7-7-7-6-6-6-6-3-3-3-3-3-3-3-3-6-6-6-6-6-6-6-6--6-6-6--6-6-6-6-6-6---| (x3)
      . . .   . . .   . . .   . . .   . . .   . . .  . . .  . .   . . .








10. I Love Watching You Die



Intro/Verse::


D|---------------------------------------------------------------------------------------|
A|---------------------------------------------------------------------------------------|
F|---------------------------------------------------------------------------------------|
C|--2--2-2--2--2-2--2-2--2--2-2--2--2-2--2-2--5--5-5--5--5-5--5-5--5--5-5--5--5-5--5-5---|
G|--2--2-2--2--2-2--2-2--2--2-2--2--2-2--2-2--5--5-5--5--5-5--5-5--5--5-5--5--5-5--5-5---|
C|--2--2-2--2--2-2--2-2--2--2-2--2--2-2--2-2--5--5-5--5--5-5--5-5--5--5-5--5--5-5--5-5---| (x2)
       . .     . .    .     . .     . .    .     . .     . .    .     . .     . .    .


Pre-Chorus:


D|------------------|
A|------------------|
F|------------------|
C|--2----5-----10---|
G|--2----5-----10---|
C|--2----5-----10---| (x2)


Chorus:


D|-------------------------------------------------------------------------------------------|
A|-------------------------------------------------------------------------------------------|
F|--9-9-9-9--12-12-12-12--11-11-11-11--9-9-9-9--7-7-7-7--12-12-12-12--11-11-11-11--7-7-7-7---|
C|--9-9-9-9--12-12-12-12--11-11-11-11--9-9-9-9--7-7-7-7--12-12-12-12--11-11-11-11--7-7-7-7---|
G|--7-7-7-7--10-10-10-10--9--9--9--9---7-7-7-7--5-5-5-5--10-10-10-10--9--9--9--9---5-5-5-5---|
C|-------------------------------------------------------------------------------------------| (x4)


Verse:


D|---------------------------------------------------------------------------------------|
A|---------------------------------------------------------------------------------------|
F|---------------------------------------------------------------------------------------|
C|--2--2-2--2--2-2--2-2--2--2-2--2--2-2--2-2--5--5-5--5--5-5--5-5--5--5-5--5--5-5--5-5---|
G|--2--2-2--2--2-2--2-2--2--2-2--2--2-2--2-2--5--5-5--5--5-5--5-5--5--5-5--5--5-5--5-5---|
C|--2--2-2--2--2-2--2-2--2--2-2--2--2-2--2-2--5--5-5--5--5-5--5-5--5--5-5--5--5-5--5-5---| (x6)
       . .     . .    .     . .     . .    .     . .     . .

Almost there ...

Sign in to get your own page with links to favourite songs and more. You are just one click away...

Login with Facebook Login with Google