Search tabs and chords

Search for song, artist or band

Log in

One click and you are in

Login with Facebook Login with Google

Why sign up and log in

Guitar Tabs Explorer
Wednesday 13 guitar tabs for God is a lie

Guitar tabs

----------------------------------------------------------------------------
                       Wednesday 13 - God is a Lie
----------------------------------------------------------------------------

Tabbed by: Metalrock4ever

Tuning: DADGBE

Intro:

Guitar 1:
E|---------------------|
B|---------------------|
G|---------------------|
D|---------------------| x2
A|---------------------|
D|-5555-1111-8888-3333-|

Guitar 2:
(Wait after Guitar 1 plays riff once)
E|-10~-----------|
B|--8~-4~-11~-6~-|
G|---------------|
D|---------------|
A|---------------|
D|---------------|

Guitar 1:
E|---------------------|
B|---------------------|
G|---------------------|
D|-5555-1111-8888-3333-| x2
A|-5555-1111-8888-3333-|
D|-5555-1111-8888-3333-|

Guitar 2/Solo:
E|--------6~-5~-|                 |----|
B|-8~-6/8-------|                 |-8~-|
G|--------------|  x4,  End on... |----|
D|--------------|                 |----|
A|--------------|                 |----|
D|--------------|                 |----|

Verse:
E|---------------------|
B|---------------------|
G|---------------------|
D|---------------------| x4
A|---------------------|
D|-5555-1111-8888-3333-|

Solo Part:
(Play after you hear the main riff twice)
E|-3~----6~----|
B|----4~----6~-|
G|-------------|
D|-------------|  x2
A|-------------|
D|-------------|

Pre-Chorus:
E|------------------------|
B|------------------------|
G|------------------------|
D|-5-5-5-3-1111-8888-3333-|   x2
A|-5-5-5-3-1111-8888-3333-|
D|-5-5-5-3-1111-8888-3333-|

E|---------------------|
B|---------------------|
G|---------------------|
D|-1111-1111-0000-0000-|
A|-1111-1111-0000-0000-|
D|-1111-1111-0000-0000-|

Solo Part:
E|------------6~----|
B|-8-8-8-6-4~----6~-|
G|------------------|
D|------------------|  x2
A|------------------|
D|------------------|

E|------------------|
B|-4-4-4-6\4-3-3-3~-|
G|------------------|
D|------------------|
A|------------------|
D|------------------|

Chorus:
E|---------------------|
B|---------------------|
G|---------------------|
D|-5555-1111-8888-3333-| x4
A|-5555-1111-8888-3333-|
D|-5555-1111-8888-3333-|

Solo Part:
E|--------6~-5~-|
B|-8~-6/8-------|
G|--------------|  x8
D|--------------|
A|--------------|
D|--------------|

Post Chorus:
E|-----------------|
B|-----------------|
G|-----------------|
D|-5-1-5-1-5-1-5-1-|  x4
A|-5-1-5-1-5-1-5-1-|
D|-5-1-5-1-5-1-5-1-|

Solo Part:
E|-----------------|            E|-3---3---3---3---|
B|-8-4-8-4-8-4-8-4-|            G|---4---4---4---4-|
G|-----------------|            B|-----------------|
D|-----------------| x4   or... D|-----------------|  x4
A|-----------------|            A|-----------------|
D|-----------------|            D|-----------------|

Verse 2:
E|---------------------|
B|---------------------|
G|---------------------|
D|---------------------| x4
A|---------------------|
D|-5555-1111-8888-3333-|

Solo Part:
(Play after you hear the main riff twice)
E|-3~----6~----|
B|----4~----6~-|
G|-------------|
D|-------------|  x2
A|-------------|
D|-------------|

Pre-Chorus 2:
E|------------------------|
B|------------------------|
G|------------------------|
D|-5-5-5-3-1111-8888-3333-|   x2
A|-5-5-5-3-1111-8888-3333-|
D|-5-5-5-3-1111-8888-3333-|

E|---------------------|
B|---------------------|
G|---------------------|
D|-1111-1111-0000-0000-|
A|-1111-1111-0000-0000-|
D|-1111-1111-0000-0000-|
Solo Part:
E|------------6~----|
B|-8-8-8-6-4~----6~-|
G|------------------|
D|------------------|  x2
A|------------------|
D|------------------|

E|------------------|
B|-4-4-4-6\4-3-3-3~-|
G|------------------|
D|------------------|
A|------------------|
D|------------------|

Chorus 2:
E|---------------------|
B|---------------------|
G|---------------------|
D|-5555-1111-8888-3333-| x4
A|-5555-1111-8888-3333-|
D|-5555-1111-8888-3333-|

Solo Part:
E|--------6~-5~-|
B|-8~-6/8-------|
G|--------------|  x8
D|--------------|
A|--------------|
D|--------------|

Post Chorus:
E|-----------------|
B|-----------------|
G|-----------------|
D|-5-1-5-1-5-1-5-1-|  x4
A|-5-1-5-1-5-1-5-1-|
D|-5-1-5-1-5-1-5-1-|

Solo Part:
E|-----------------|            E|-3---3---3---3---|
B|-8-4-8-4-8-4-8-4-|            G|---4---4---4---4-|
G|-----------------|            B|-----------------|
D|-----------------| x4   or... D|-----------------|  x4
A|-----------------|            A|-----------------|
D|-----------------|            D|-----------------|

Bridge:
E|---------------------|
B|---------------------|
G|---------------------|
D|-5555-1111-8888-3333-| x4
A|-5555-1111-8888-3333-|
D|-5555-1111-8888-3333-|

Solo Part 1:
E|--------------------------------------------------|
B|-2/3~-3-2/3~-3-2/3~-6-1---------------------------|
G|------------------------3-0~-0/3-3~-3/5-5~-5/7-7~-|
D|--------------------------------------------------|
A|--------------------------------------------------|
D|--------------------------------------------------|

Solo Part 2:
E|-3333-3-6-8-10~-8h10-10-8-6-3~-1~------5-6-5-3~-|
B|----------------------------------3~-3----------|
G|------------------------------------------------|
D|------------------------------------------------|
A|------------------------------------------------|
D|------------------------------------------------|

Pre-Chorus:
B|------------------------|
G|------------------------|
D|-5-5-5-3-1111-8888-3333-|   x2
A|-5-5-5-3-1111-8888-3333-|
D|-5-5-5-3-1111-8888-3333-|

E|---------------------|
B|---------------------|
G|---------------------|
D|-1111-1111-0000-0000-|
A|-1111-1111-0000-0000-|
D|-1111-1111-0000-0000-|

Solo Part:
E|------------6~----|
B|-8-8-8-6-4~----6~-|
G|------------------|
D|------------------|  x2
A|------------------|
D|------------------|

E|------------------|
B|-4-4-4-6\4-3-3-3~-|
G|------------------|
D|------------------|
A|------------------|
D|------------------|

Final Chorus:
E|---------------------|
B|---------------------|
G|---------------------|
D|-5555-1111-8888-3333-| x4
A|-5555-1111-8888-3333-|
D|-5555-1111-8888-3333-|

Solo Part:
E|--------6~-5~-|
B|-8~-6/8-------|
G|--------------|  x8
D|--------------|
A|--------------|
D|--------------|

Post Chorus:
E|-----------------|
B|-----------------|
G|-----------------|
D|-5-1-5-1-5-1-5-1-|  x4
A|-5-1-5-1-5-1-5-1-|
D|-5-1-5-1-5-1-5-1-|

Solo Part:
E|-2/3333-5-2/3333-5-|
B|-------------------|
G|-------------------|
D|-------------------|
A|-------------------|
D|-------------------|

End on:
E|----|                   E|-3~-|
B|----|                   B|----|
G|----|                   G|----|
D|-5~-|   ...or for solo  D|----|
A|-5~-|                   A|----|
D|-5~-|                   D|----|

************************************

| /   slide up
| \   slide down
| h   hammer-on
| ~   vibrato

************************************

If you have any comments/corrections, feel free to say either in the comments box or on

Almost there ...

Sign in to get your own page with links to favourite songs and more. You are just one click away...

Login with Facebook Login with Google