Search tabs and chords

Search for song, artist or band

Log in

One click and you are in

Login with Facebook Login with Google

Why sign up and log in

Guitar Tabs Explorer
Wednesday 13 guitar tabs for Faith in the devil

Guitar tabs

----------------------------------------------------------------------------
                           Wednesday 13 - Faith in the Devil
----------------------------------------------------------------------------

Tabbed by: Metalrock4ever

Tuning: DADGBE

Just saying, but this version does not include the solo during the bridge.

Intro:
E|----------------------------|
B|----------------------------|
G|----------------------------|
D|-0-2-0-7-5-2-0-2--0-2-2-0-2-|  x4
A|-0-2-0-7-5-2-0-2--0-2-2-0-2-|
D|-0-2-0-7-5-2-0-2--0-2-2-0-2-|

Verse:
E|----------|
B|----------|
G|----------|
D|-0-2-0-2\-|  x4
A|-0-2-0-2\-|
D|-0-2-0-2\-|

E|----------------------------|
B|----------------------------|
G|----------------------------|
D|-0-2-0-7-5-2-0-2--0-2-2-0-2-|  x4
A|-0-2-0-7-5-2-0-2--0-2-2-0-2-|
D|-0-2-0-7-5-2-0-2--0-2-2-0-2-|

Pre-Chorus:
E|---------------------|
B|---------------------|
G|-5555----------------|
D|-5555-5555-2222-2222-|
A|-3333-5555-2222-2222-|
D|------5555-2222-2222-|

E|---------------------|
B|---------------------|
G|-5555----------------|
D|-5555-5555-7777-5555-|
A|-3333-5555-7777-5555-|
D|------5555-7777-5555-|

Solo:
E|-8~-3~------8~-3~-5~-3~-|
B|-------4h5~-------------|
G|------------------------|
D|------------------------|
A|------------------------|
D|------------------------|

Chorus:
E|----------------------------|
B|----------------------------|
G|----------------------------|
D|-0-2-0-7-5-2-0-2--0-2-2-0-2-|  x4
A|-0-2-0-7-5-2-0-2--0-2-2-0-2-|
D|-0-2-0-7-5-2-0-2--0-2-2-0-2-|

Verse 2:
E|----------|
B|----------|
G|----------|
D|-0-2-0-2\-|  x4
A|-0-2-0-2\-|
D|-0-2-0-2\-|

E|----------------------------|
B|----------------------------|
G|----------------------------|
D|-0-2-0-7-5-2-0-2--0-2-2-0-2-|  x4
A|-0-2-0-7-5-2-0-2--0-2-2-0-2-|
D|-0-2-0-7-5-2-0-2--0-2-2-0-2-|
Pre-Chorus:
E|---------------------|
B|---------------------|
G|-5555----------------|
D|-5555-5555-2222-2222-|
A|-3333-5555-2222-2222-|
D|------5555-2222-2222-|

E|---------------------|
B|---------------------|
G|-5555----------------|
D|-5555-5555-7777-5555-|
A|-3333-5555-7777-5555-|
D|------5555-7777-5555-|

Solo:
E|-8~-3~------8~-3~-5~-3~-|
B|-------4h5~-------------|
G|------------------------|
D|------------------------|
A|------------------------|
D|------------------------|

Chorus 2:
E|----------------------------|
B|----------------------------|
G|----------------------------|
D|-0-2-0-7-5-2-0-2--0-2-2-0-2-|  x4
A|-0-2-0-7-5-2-0-2--0-2-2-0-2-|
D|-0-2-0-7-5-2-0-2--0-2-2-0-2-|

Bridge:
E|----------|
B|----------|
G|----------|
D|-0-2-0-2\-|  x4
A|-0-2-0-2\-|
D|-0-2-0-2\-|

Lead into Pre-Chorus with this:
|-------|
|-------|
|-------|
|-0-2-0-|
|-0-2-0-|
|-0-2-0-|

E|---------------------|
B|---------------------|
G|-5555----------------|
D|-5555-5555-2222-2222-|
A|-3333-5555-2222-2222-|
D|------5555-2222-2222-|

E|---------------------|
B|---------------------|
G|-5555----------------|
D|-5555-5555-7777-5555-|
A|-3333-5555-7777-5555-|
D|------5555-7777-5555-|

Solo:
E|-8~-3~------8~-3~-5~-3~-|
B|-------4h5~-------------|
G|------------------------|
D|------------------------|
A|------------------------|
D|------------------------|

Final Chorus:
E|----------------------------|
B|----------------------------|
G|----------------------------|
D|-0-2-0-7-5-2-0-2--0-2-2-0-2-|  x8
A|-0-2-0-7-5-2-0-2--0-2-2-0-2-|
D|-0-2-0-7-5-2-0-2--0-2-2-0-2-|

End on:
E|----|
B|----|
G|----|
D|-2~-|
A|-2~-|
D|-2~-|

************************************

| /   slide up
| \   slide down
| h   hammer-on
| ~   vibrato
| x   Mute note

************************************

Sorry about not including the solo in the bridge. I shall look into it in the near future.
Anyway, if you have any comments/corrections, please say in either the comments box or on
my profile page. Good luck and enjoy!

Almost there ...

Sign in to get your own page with links to favourite songs and more. You are just one click away...

Login with Facebook Login with Google