Search tabs and chords

Search for song, artist or band

Log in

One click and you are in

Login with Facebook Login with Google

Why sign up and log in

Guitar Tabs Explorer
Wednesday 13 guitar tabs for Dead carolina acoustic

Guitar tabs

This tab is created by LivingDead31

Album: Undead Unplugged
Tuning: Drop A chord diagramC majorC

[Intro]



D--0-0-0-0---0-0-0--0-0-0-0---0-0-0----------------------------------
A--3-3-3-3---3-3-3--0-0-0-0---0-0-0----------------------------------
F--2-2-2-2---2-2-2--2-2-2-2---2-2-2---3-3-3-3-3-3-3--5-5-5-5-5-5-5---
C--0-0-0-0---0-0-0--2-2-2-2---2-2-2---3-3-3-3-3-3-3--5-5-5-5-5-5-5---
G--0-0-0-0---0-0-0--0-0-0-0---0-0-0---1-1-1-1-1-1-1--3-3-3-3-3-3-3---
C--------------------------------------------------------------------   Repeat(x2)



[Verse]



D--0-0-000-0-0-0--0--0--000-0-0-0--0--0--000-0-0-0--0--0---000-0-0-0--0--0---
A--3-3-333-3-3-3--3--3--333-3-3-3--3--3--333-3-3-3--3--3---333-3-3-3--3--3---
F--2-2-222-2-2-2--2--2--222-2-2-2--2--2--222-2-2-2--2--2---222-2-2-2--2--2---
C--0-0-000-0-0-0--0--0--000-0-0-0--0--0--000-0-0-0--0--0---000-0-0-0--0--0---
G--0-0-000-0-0-0--0--0--000-0-0-0--0--0--000-0-0-0--0--0---000-0-0-0--0--0---
C----------------------------------------------------------------------------



D--000-0-0-0--0--0--000-0-0-0--0--0---000-0-0-0--0--0---
A--333-3-3-3--3--3--333-3-3-3--3--3---333-3-3-3--3--3---
F--222-2-2-2--2--2--222-2-2-2--2--2---222-2-2-2--2--2---
C--000-0-0-0--0--0--000-0-0-0--0--0---000-0-0-0--0--0---
G--000-0-0-0--0--0--000-0-0-0--0--0---000-0-0-0--0--0---
C-------------------------------------------------------


[Pre-Chorus]



D--0-0-0-0---0-0-0--0-0-0-0---0-0-0----------------------------------
A--3-3-3-3---3-3-3--0-0-0-0---0-0-0----------------------------------
F--2-2-2-2---2-2-2--2-2-2-2---2-2-2---3-3-3-3-3-3-3--5-5-5-5-5-5-5---
C--0-0-0-0---0-0-0--2-2-2-2---2-2-2---3-3-3-3-3-3-3--5-5-5-5-5-5-5---
G--0-0-0-0---0-0-0--0-0-0-0---0-0-0---1-1-1-1-1-1-1--3-3-3-3-3-3-3---
C--------------------------------------------------------------------   Repeat (x2)



[Chorus]



D----------------------------------------------------------------------------
A----------------------------------------------------------------------------
F--10-10-10-10-10-10-10-10-10-10-10-10-10-10--8--8-8--8-8-8--7--7-7--7-7-7---
C--10-10-10-10-10-10-10-10-10-10-10-10-10-10--8--8-8--8-8-8--7--7-7--7-7-7---
G--8--8--8--8--8--8--8--7--7--7--7--7--7--7---6--6-6--6-6-6--5--5-5--5-5-5---
C----------------------------------------------------------------------------

D------------------------------------------------------------------
A------------------------------------------------------------------
F--10-10-10-10-10-10-10-10-10-10-10-10-10-10--8--8-8--8-8-8--7-7---
C--10-10-10-10-10-10-10-10-10-10-10-10-10-10--8--8-8--8-8-8--7-7---
G--8--8--8--8--8--8--8--7--7--7--7--7--7--7---6--6-6--6-6-6--5-5---
C------------------------------------------------------------------



[Verse]



D--0-0-000-0-0-0--0--0--000-0-0-0--0--0--000-0-0-0--0--0---000-0-0-0--0--0---
A--3-3-333-3-3-3--3--3--333-3-3-3--3--3--333-3-3-3--3--3---333-3-3-3--3--3---
F--2-2-222-2-2-2--2--2--222-2-2-2--2--2--222-2-2-2--2--2---222-2-2-2--2--2---
C--0-0-000-0-0-0--0--0--000-0-0-0--0--0--000-0-0-0--0--0---000-0-0-0--0--0---
G--0-0-000-0-0-0--0--0--000-0-0-0--0--0--000-0-0-0--0--0---000-0-0-0--0--0---
C----------------------------------------------------------------------------



D--000-0-0-0--0--0--000-0-0-0--0--0---000-0-0-0--0--0---
A--333-3-3-3--3--3--333-3-3-3--3--3---333-3-3-3--3--3---
F--222-2-2-2--2--2--222-2-2-2--2--2---222-2-2-2--2--2---
C--000-0-0-0--0--0--000-0-0-0--0--0---000-0-0-0--0--0---
G--000-0-0-0--0--0--000-0-0-0--0--0---000-0-0-0--0--0---
C-------------------------------------------------------



[Pre-Chorus]



D--0-0-0-0---0-0-0--0-0-0-0---0-0-0----------------------------------
A--3-3-3-3---3-3-3--0-0-0-0---0-0-0----------------------------------
F--2-2-2-2---2-2-2--2-2-2-2---2-2-2---3-3-3-3-3-3-3--5-5-5-5-5-5-5---
C--0-0-0-0---0-0-0--2-2-2-2---2-2-2---3-3-3-3-3-3-3--5-5-5-5-5-5-5---
G--0-0-0-0---0-0-0--0-0-0-0---0-0-0---1-1-1-1-1-1-1--3-3-3-3-3-3-3---
C--------------------------------------------------------------------   Repeat (x2)



[Chorus]



D----------------------------------------------------------------------------
A----------------------------------------------------------------------------
F--10-10-10-10-10-10-10-10-10-10-10-10-10-10--8--8-8--8-8-8--7--7-7--7-7-7---
C--10-10-10-10-10-10-10-10-10-10-10-10-10-10--8--8-8--8-8-8--7--7-7--7-7-7---
G--8--8--8--8--8--8--8--7--7--7--7--7--7--7---6--6-6--6-6-6--5--5-5--5-5-5---
C----------------------------------------------------------------------------

D------------------------------------------------------------------
A------------------------------------------------------------------
F--10-10-10-10-10-10-10-10-10-10-10-10-10-10--8--8-8--8-8-8--7-7---
C--10-10-10-10-10-10-10-10-10-10-10-10-10-10--8--8-8--8-8-8--7-7---
G--8--8--8--8--8--8--8--7--7--7--7--7--7--7---6--6-6--6-6-6--5-5---
C------------------------------------------------------------------



[Verse]



D--0-0-000-0-0-0--0--0--000-0-0-0--0--0--000-0-0-0--0--0---000-0-0-0--0--0---
A--3-3-333-3-3-3--3--3--333-3-3-3--3--3--333-3-3-3--3--3---333-3-3-3--3--3---
F--2-2-222-2-2-2--2--2--222-2-2-2--2--2--222-2-2-2--2--2---222-2-2-2--2--2---
C--0-0-000-0-0-0--0--0--000-0-0-0--0--0--000-0-0-0--0--0---000-0-0-0--0--0---
G--0-0-000-0-0-0--0--0--000-0-0-0--0--0--000-0-0-0--0--0---000-0-0-0--0--0---
C----------------------------------------------------------------------------



D--000-0-0-0--0--0--000-0-0-0--0--0---000-0-0-0--0--0---
A--333-3-3-3--3--3--333-3-3-3--3--3---333-3-3-3--3--3---
F--222-2-2-2--2--2--222-2-2-2--2--2---222-2-2-2--2--2---
C--000-0-0-0--0--0--000-0-0-0--0--0---000-0-0-0--0--0---
G--000-0-0-0--0--0--000-0-0-0--0--0---000-0-0-0--0--0---
C-------------------------------------------------------



[Chorus]



D----------------------------------------------------------------------------
A----------------------------------------------------------------------------
F--10-10-10-10-10-10-10-10-10-10-10-10-10-10--8--8-8--8-8-8--7--7-7--7-7-7---
C--10-10-10-10-10-10-10-10-10-10-10-10-10-10--8--8-8--8-8-8--7--7-7--7-7-7---
G--8--8--8--8--8--8--8--7--7--7--7--7--7--7---6--6-6--6-6-6--5--5-5--5-5-5---
C----------------------------------------------------------------------------   Repeat (x3)

D------------------------------------------------------------------
A------------------------------------------------------------------
F--10-10-10-10-10-10-10-10-10-10-10-10-10-10--8--8-8--8-8-8--7-7---
C--10-10-10-10-10-10-10-10-10-10-10-10-10-10--8--8-8--8-8-8--7-7---
G--8--8--8--8--8--8--8--7--7--7--7--7--7--7---6--6-6--6-6-6--5-5---
C------------------------------------------------------------------



[Outro]



D--0-0-000-0-0-0--0--0--000-0-0-0--0--0--000-0-0-0--0--0---000-0-0-0--0--0---
A--3-3-333-3-3-3--3--3--333-3-3-3--3--3--333-3-3-3--3--3---333-3-3-3--3--3---
F--2-2-222-2-2-2--2--2--222-2-2-2--2--2--222-2-2-2--2--2---222-2-2-2--2--2---
C--0-0-000-0-0-0--0--0--000-0-0-0--0--0--000-0-0-0--0--0---000-0-0-0--0--0---
G--0-0-000-0-0-0--0--0--000-0-0-0--0--0--000-0-0-0--0--0---000-0-0-0--0--0---
C----------------------------------------------------------------------------



D--000-0-0-0--0--0--000-0-0-0--0--0---000-0-0-0--0--0---
A--333-3-3-3--3--3--333-3-3-3--3--3---333-3-3-3--3--3---
F--222-2-2-2--2--2--222-2-2-2--2--2---222-2-2-2--2--2---
C--000-0-0-0--0--0--000-0-0-0--0--0---000-0-0-0--0--0---
G--000-0-0-0--0--0--000-0-0-0--0--0---000-0-0-0--0--0---

Almost there ...

Sign in to get your own page with links to favourite songs and more. You are just one click away...

Login with Facebook Login with Google