Search tabs and chords

Search for song, artist or band

Log in

One click and you are in

Login with Facebook Login with Google

Why sign up and log in

Guitar Tabs Explorer
Wednesday 13 guitar tabs for Creep for life

Guitar tabs

This tab is created by LivingDead31

Album: Dead Meat 10 Years of Blood,Feathers & Lipstick
Tuning: Drop A chord diagramC majorC
[Intro/Verse]



D----------------------------------------------------------------
A----------------------------------------------------------------
F----------------------------------------------------------------
C----------------------------------------------------------------
G----------------------------------------------------------------
C--4--4---7--4--7--4--7---4-4-7--4--4---7--4--7--4--7---4-4-7----



D----------------------------------------------------------------
A----------------------------------------------------------------
F----------------------------------------------------------------
C----------------------------------------------------------------
G----------------------------------------------------------------
C--4--4---7--4--7--4--7---2-2-2--4--4---7--4--7--4--7--9-9-9-4---




[Verse]



D----------------------------------------------------------------
A----------------------------------------------------------------
F----------------------------------------------------------------
C--4--4---7--4--7--4--7---4-4-7--4--4---7--4--7--4--7---4-4-7----
G--4--4---7--4--7--4--7---4-4-7--4--4---7--4--7--4--7---4-4-7----
C--4--4---7--4--7--4--7---4-4-7--4--4---7--4--7--4--7---4-4-7----


D----------------------------------------------------------------
A----------------------------------------------------------------
F----------------------------------------------------------------
C--4--4---7--4--7--4--7---2-2-2--4--4---7--4--7--4--7--9-9-9-4---
G--4--4---7--4--7--4--7---2-2-2--4--4---7--4--7--4--7--9-9-9-4---
C--4--4---7--4--7--4--7---2-2-2--4--4---7--4--7--4--7--9-9-9-4---



[Chorus]



D----------------------------------------------------------------
A----------------------------------------------------------------
F----------------------------------------------------------------
C--4--4---7--4--7--4--7---4-4-7--4--4---7--4--7--4--7---4-4-7----
G--4--4---7--4--7--4--7---4-4-7--4--4---7--4--7--4--7---4-4-7----
C--4--4---7--4--7--4--7---4-4-7--4--4---7--4--7--4--7---4-4-7----



D----------------------------------------------------------------
A----------------------------------------------------------------
F----------------------------------------------------------------
C--4--4---7--4--7--4--7---2-2-2--4--4---7--4--7--4--7--9-9-9-4---
G--4--4---7--4--7--4--7---2-2-2--4--4---7--4--7--4--7--9-9-9-4---

Almost there ...

Sign in to get your own page with links to favourite songs and more. You are just one click away...

Login with Facebook Login with Google