Search tabs and chords

Search for song, artist or band

Log in

One click and you are in

Login with Facebook Login with Google

Why sign up and log in

Guitar Tabs Explorer
Wednesday 13 guitar tabs for Candle for the devil

Guitar tabs with lyrics

----------------------------------------------------------------------------
                        Wednesday 13 - Candle for the Devil
----------------------------------------------------------------------------

Tabbed by: Metalrock4ever

Tuning: DADGBE

The solo part is not all correct. When it comes to playing the harmonies, I'm sure they
aren't the
right harmonies. The solo is very difficult to tab. Well, please correct me if you know
what's wrong.

Intro:
E|-----------------------------------------------------|
B|-----------------------------------------------------|
G|-----------------------------------------------------|
D|-9x-9-7-12~-9x-9-7-9~-9x-9-7-12~-9x-9-7-9~-7-9-4-2-4-|
A|-9x-9-7-12~-9x-9-7-9~-9x-9-7-12~-9x-9-7-9~-7-9-4-2-4-|
D|-9x-9-7-12~-9x-9-7-9~-9x-9-7-12~-9x-9-7-9~-7-9-4-2-4-|

E|-------------------------------------------------------|
B|-------------------------------------------------------|
G|-------------------------------------------------------|
D|-9x-9-7-12~-12-12--9x-9-7-9~-9-9--9x-9-7-12~-9x-9-7-9~-|
A|-9x-9-7-12~-12-12--9x-9-7-9~-9-9--9x-9-7-12~-9x-9-7-9~-|
D|-9x-9-7-12~-12-12--9x-9-7-9~-9-9--9x-9-7-12~-9x-9-7-9~-|

Solo Part:
(Play after the first half of the riff)
E|-------------------|
B|-----------12~-12-|
G|-11-11-11----------|
D|-9--7--12~---------|
A|-------------------|
D|-------------------|

Verse:
E|-------------------------------------------|
B|-------------------------------------------|
G|-------------------------------------------|
D|-9x-9-7-12~-9x-9-7-9~-9x-9-7-12~-9x-9-7-9~-|
A|-9x-9-7-12~-9x-9-7-9~-9x-9-7-12~-9x-9-7-9~-|
D|-9x-9-7-12~-9x-9-7-9~-9x-9-7-12~-9x-9-7-9~-|

E|-----------------------------------------------------|
B|-----------------------------------------------------|
G|-----------------------------------------------------|
D|-9x-9-7-12~-9x-9-7-9~-9x-9-7-12~-9x-9-7-9~-9-9-9-7-9-|
A|-9x-9-7-12~-9x-9-7-9~-9x-9-7-12~-9x-9-7-9~-9-9-9-7-9-|
D|-9x-9-7-12~-9x-9-7-9~-9x-9-7-12~-9x-9-7-9~-9-9-9-7-9-|

Solo Part:
(Play first time)
E|------14+~-|
B|-12+~------|
G|-----------|
D|-----------|
A|-----------|
D|-----------|

E|---------------------------|
B|---------------------------|
G|-11-11-11------------------|
D|-9--7--12~----9-12-9----9~-|
A|-----------12--------12----|
D|---------------------------|

E|--------------------------|
B|-----------12~------------|
G|-11-11-11------4-4-4-2-4-|
D|-9--7--12~----------------|
A|--------------------------|
D|--------------------------|

Chorus:
E|-------------------------------------------|
B|-------------------------------------------|
G|-------------------------------------------|
D|-9x-9-7-12~-9x-9-7-9~-9x-9-7-12~-9x-9-7-9~-|  x2
A|-9x-9-7-12~-9x-9-7-9~-9x-9-7-12~-9x-9-7-9~-|
D|-9x-9-7-12~-9x-9-7-9~-9x-9-7-12~-9x-9-7-9~-|

Post-Chorus:
E|-------------------------------------------|
B|-------------------------------------------|
G|-------------------------------------------|
D|-9x-9-7-12~-9x-9-7-9~-9x-9-7-12~-9x-9-7-9~-|
A|-9x-9-7-12~-9x-9-7-9~-9x-9-7-12~-9x-9-7-9~-|
D|-9x-9-7-12~-9x-9-7-9~-9x-9-7-12~-9x-9-7-9~-|

Solo Part:
(I don't know what is being played here, but I think it's like this)
E|--------------------------7-----------12-10-9-7---7b-|
B|-7h10-7h10-7h10-7h10-7h10-7-10-7-5-3~-----------7----|
G|-----------------------------------------------------|
D|-----------------------------------------------------|
A|-----------------------------------------------------|
D|-----------------------------------------------------|

(I have no idea about the solo part here)
|-----------------------------------|
|-----------4h3h0-4h3h0-5h3h0-0~-4/-|
|-------2b--------------------------|
|-0-4h5-----------------------------|
|-----------------------------------|
|-----------------------------------|

Verse 2:
E|-------------------------------------------|
B|-------------------------------------------|
G|-------------------------------------------|
D|-9x-9-7-12~-9x-9-7-9~-9x-9-7-12~-9x-9-7-9~-|
A|-9x-9-7-12~-9x-9-7-9~-9x-9-7-12~-9x-9-7-9~-|
D|-9x-9-7-12~-9x-9-7-9~-9x-9-7-12~-9x-9-7-9~-|

E|-----------------------------------------------------|
B|-----------------------------------------------------|
G|-----------------------------------------------------|
D|-9x-9-7-12~-9x-9-7-9~-9x-9-7-12~-9x-9-7-9~-9-9-9-7-9-|
A|-9x-9-7-12~-9x-9-7-9~-9x-9-7-12~-9x-9-7-9~-9-9-9-7-9-|
D|-9x-9-7-12~-9x-9-7-9~-9x-9-7-12~-9x-9-7-9~-9-9-9-7-9-|

Solo Part:
(Play first time)
E|------14+~-----------|
B|-12+~-------12+~-7+~-|
G|---------------------|
D|---------------------|
A|---------------------|
D|---------------------|

E|---------------------------|
B|---------------------------|
G|-11-11-11------------------|
D|-9--7--12~----9-12-9----9~-|
A|-----------12--------12----|
D|---------------------------|

E|--------------------------|
B|-----------12~------------|
G|-11-11-11------4-4-4-2-4-|
D|-9--7--12~----------------|
A|--------------------------|
D|--------------------------|

Chorus 2:
E|-------------------------------------------|
B|-------------------------------------------|
G|-------------------------------------------|
D|-9x-9-7-12~-9x-9-7-9~-9x-9-7-12~-9x-9-7-9~-|  x2
A|-9x-9-7-12~-9x-9-7-9~-9x-9-7-12~-9x-9-7-9~-|
D|-9x-9-7-12~-9x-9-7-9~-9x-9-7-12~-9x-9-7-9~-|

Bridge:
E|-------------------------------------------|
B|-------------------------------------------|
G|-------------------------------------------|
D|-9x-9-7-12~-9x-9-7-9~-9x-9-7-12~-9x-9-7-9~-|
A|-9x-9-7-12~-9x-9-7-9~-9x-9-7-12~-9x-9-7-9~-|
D|-9x-9-7-12~-9x-9-7-9~-9x-9-7-12~-9x-9-7-9~-|

Solo Part:
E|-7~-5b~-7~---------------------------------------------------------------|
B|-----------7-5---5-7-7-5-3-0-------------5h3h0-5h3h0-5h3h0-7h5h0-12~10~-|
G|---------------7----------------1~-2~-4~---------------------------------|
D|-----------------------------4~------------------------------------------|
A|-------------------------------------------------------------------------|
D|-------------------------------------------------------------------------|

Then...
E|-----------------------------------------------------|
B|-----------------------------------------------------|
G|-----------------------------------------------------|
D|-9x-9-7-12~-9x-9-7-9~-9x-9-7-12~-9x-9-7-9~-7-9-4-2-4-|
A|-9x-9-7-12~-9x-9-7-9~-9x-9-7-12~-9x-9-7-9~-7-9-4-2-4-|
D|-9x-9-7-12~-9x-9-7-9~-9x-9-7-12~-9x-9-7-9~-7-9-4-2-4-|

Final Chorus:
E|-------------------------------------------|
B|-------------------------------------------|
G|-------------------------------------------|
D|-9x-9-7-12~-9x-9-7-9~-9x-9-7-12~-9x-9-7-9~-|  x2
A|-9x-9-7-12~-9x-9-7-9~-9x-9-7-12~-9x-9-7-9~-|
D|-9x-9-7-12~-9x-9-7-9~-9x-9-7-12~-9x-9-7-9~-|

Post-Chorus:
(Play the riff and fade out)
E|-------------------------------------------|
B|-------------------------------------------|
G|-------------------------------------------|
D|-9x-9-7-12~-9x-9-7-9~-9x-9-7-12~-9x-9-7-9~-|
A|-9x-9-7-12~-9x-9-7-9~-9x-9-7-12~-9x-9-7-9~-|
D|-9x-9-7-12~-9x-9-7-9~-9x-9-7-12~-9x-9-7-9~-|

Solo Part:
(I don't know what is being played here, but I think it's like this)
E|--------------------------7-----------12-10-9-7---7b-|
B|-7h10-7h10-7h10-7h10-7h10-7-10-7-5-3~-----------7----|
G|-----------------------------------------------------|
D|-----------------------------------------------------|
A|-----------------------------------------------------|
D|-----------------------------------------------------|

(I have no idea about the solo part here)
|-----------------------------------|
|-----------4h3h0-4h3h0-5h3h0-0~-4/-|
|-------2b--------------------------|
|-0-4h5-----------------------------|
|-----------------------------------|
|-----------------------------------|

E|------14+~------14+~-----|
B|-12+~-------7+~------7+~-|
G|-------------------------|
D|-------------------------|
A|-------------------------|
D|-------------------------|

************************************

| /   slide up
|    slide down
| h   hammer-on
| ~   vibrato
| +   harmonic
| x   Mute note
| b   Bend

************************************

Well, that was a difficult piece for my to tab. If you have any comments/corrections, please
say in the comments box or on my proifle page, I'll see it either way. Good luck and enjoy!

Almost there ...

Sign in to get your own page with links to favourite songs and more. You are just one click away...

Login with Facebook Login with Google