Search tabs and chords

Search for song, artist or band

Log in

One click and you are in

Login with Facebook Login with Google

Why sign up and log in

Guitar Tabs Explorer
Wednesday 13 guitar tabs for Bad at being human

Guitar tabs

Intro/Main riff
[ 0:07 ]

D|-------------------------------------------|
A|-------------------------------------------|
F|-------------------------------------------|
C|--4-4-4--x--7-7-7-9-7-9-7-9-7---12-12-12-11|
G|--4-4-4--x--7-7-7-9-7-9-7-9-7---12-12-12-11|
C|--4-4-4--x--7-7-7-9-7-9-7-9-7---12-12-12-11|

D|------------------------------------------------------------|
A|------------------------------------------------------------|
F|------------------------------------------------------------|
C|--4-4-4--x--7-7-7-9-7-9-7-9-7----4-4-4--x--7-7-7-9-7-9-7-9-7|
G|--4-4-4--x--7-7-7-9-7-9-7-9-7----4-4-4--x--7-7-7-9-7-9-7-9-7|
C|--4-4-4--x--7-7-7-9-7-9-7-9-7----4-4-4--x--7-7-7-9-7-9-7-9-7|

D|-------------------------------------------|
A|-------------------------------------------|
F|-------------------------------------------|
C|--4-4-4--x--7-7-7-9-7-9-7-9-7---12-12-12-11|
G|--4-4-4--x--7-7-7-9-7-9-7-9-7---12-12-12-11|
C|--4-4-4--x--7-7-7-9-7-9-7-9-7---12-12-12-11|

[Main riff]
[0:25]  I'm Bad... Oh baby I'm bad...

D|-------------------------------------------|
A|-------------------------------------------|
F|-------------------------------------------|
C|--4-4-7-7--4-4-7-7--4-4-7-7--2-2-2---------|
G|--4-4-7-7--4-4-7-7--4-4-7-7--2-2-2---------|
C|--4-4-7-7--4-4-7-7--4-4-7-7--2-2-2---------|  [Repeat x8]

I'm bad in the morning, bad at life....

D|----------------------------------------------------------------------|
A|----------------------------------------------------------------------|
F|----------------------------------------------------------------------|
C|--7-7-7-7-7-7-7-7--4-4-7-7--4-4-7-7--4-4-7-7--4-4-7-7--7-7-7-7-7-7-7-7|
G|--5-5-5-5-5-5-5-5--4-4-7-7--4-4-7-7--4-4-7-7--4-4-7-7--5-5-5-5-5-5-5-5|
C|-------------------4-4-7-7--4-4-7-7--4-4-7-7--4-4-7-7-----------------|

D|-------------------------------------------|
A|-------------------------------------------|
F|-------------------------------------------|
C|-----7--7--7--7--9-7-9-7-9-7---------------|
G|-----7--7--7--7--9-7-9-7-9-7---------------|

Chorus:

D|--------------------------------|
A|--------------------------------|
F|--------------------------------|
C|--4-4-4--x--7-7-7-9-7-9-7-9-7---|
G|--4-4-4--x--7-7-7-9-7-9-7-9-7---|
C|--4-4-4--x--7-7-7-9-7-9-7-9-7---| [Repeat x7]

D|-------------------------------------------|
A|-------------------------------------------|
F|-------------------------------------------|
C|--4-4-4--x--7-7-7-9-7-9-7-9-7---12-12-12-11|
G|--4-4-4--x--7-7-7-9-7-9-7-9-7---12-12-12-11|
C|--4-4-4--x--7-7-7-9-7-9-7-9-7---12-12-12-11|


[Main riff]
[Chorus]

Under the solo part:

D|-------------------------------------|
A|-------------------------------------|
F|-------------------------------------|
C|--4-4-7-7--4-4-7-7--4-4-7-7--2-2-2---|
G|--4-4-7-7--4-4-7-7--4-4-7-7--2-2-2---|
C|--4-4-7-7--4-4-7-7--4-4-7-7--2-2-2---| [Repeat x8]

D|----------------------------------------------------------------------|
A|----------------------------------------------------------------------|
F|----------------------------------------------------------------------|
C|--7-7-7-7-7-7-7-7--4-4-7-7--4-4-7-7--4-4-7-7--4-4-7-7--7-7-7-7-7-7-7-7|
G|--5-5-5-5-5-5-5-5--4-4-7-7--4-4-7-7--4-4-7-7--4-4-7-7--5-5-5-5-5-5-5-5|
C|-------------------4-4-7-7--4-4-7-7--4-4-7-7--4-4-7-7-----------------|

D|-------------------------------------------|
A|-------------------------------------------|
F|-------------------------------------------|
C|-----7--7--7--7--9-7-9-7-9-7---------------|
G|-----7--7--7--7--9-7-9-7-9-7---------------|

[Chorus]

Outro:

D|-------------------------------------|
A|-------------------------------------|
F|-------------------------------------|
C|--4-4-7-7--4-4-7-7--4-4-7-7--2-2-2---|
G|--4-4-7-7--4-4-7-7--4-4-7-7--2-2-2---|

Almost there ...

Sign in to get your own page with links to favourite songs and more. You are just one click away...

Login with Facebook Login with Google