Search tabs and chords

Search for song, artist or band

Log in

One click and you are in

Login with Facebook Login with Google

Why sign up and log in

Guitar Tabs Explorer
Wednesday 13 guitar tabs for B-movie babylon

Guitar tabs

-----------------------------------------------------------------------------
                         Wednesday 13 - B-Movie Babylon
-----------------------------------------------------------------------------

Tabbed by: Metalrock4ever

Tuning: CGCFAD

Intro:
Solo Part:
D|-------------------|
A|-------------------|
F|---------8-88-10-8-|
C|-0-0-7-7-----------|  x4
G|-------------------|
C|-------------------|

(Wait for some time between each group of chords)
D|---------------------------|
A|---------------------------|
F|---------------------------|
C|-0x0x-----0x0x0x0x0x0x0x0x-|
G|-0x0x-----0x0x0x0x0x0x0x0x-|
C|-0x0x-----0x0x0x0x0x0x0x0x-|

D|---------------------------|
A|---------------------------|
F|---------------------------|
C|-00-77-11-31-00-77-1-01-31-| x4
G|-00-77-11-31-00-77-1-01-31-|
C|-00-77-11-31-00-77-1-01-31-|

Solo Part:
D|----------|
A|----------|
F|----------|
C|-0~-7~-1~-|  x2
G|----------|
C|----------|

Verse:
D|-------------------|
A|-------------------|
F|---------8-88-10-8-|
C|-0-0-7-7-----------|  x4
G|-------------------|
C|-------------------|

or

D|-5-1---------5-6-|
A|-----3-----3-----|
F|-------2-3-------|
C|-----------------|  x4
G|-----------------|
C|-----------------|

D|---------------------------|
A|---------------------------|
F|---------------------------|
C|-00-77-11-31-00-77-1-01-31-| x4
G|-00-77-11-31-00-77-1-01-31-|
C|-00-77-11-31-00-77-1-01-31-|


Pre-Chorus:
D|----------------------|
A|----------------------|
F|-----------------4-44-|
C|-8888-7777-00-30------|  x2
G|-8888-7777-00-30------|
C|-8888-7777-00-30------|

D|-------------------------------|
A|-------------------------------|
F|-------------------------------|
C|-8888-7777-8888-7777-8888-7755-|
G|-8888-7777-8888-7777-8888-7755-|
C|-8888-7777-8888-7777-8888-7755-|


Chorus:
D|---------------------------|
A|---------------------------|
F|---------------------------|
C|-00-77-11-31-00-77-1-01-31-| x4
G|-00-77-11-31-00-77-1-01-31-|
C|-00-77-11-31-00-77-1-01-31-|

Solo Part:
D|----------|
A|----------|
F|----------|
C|-0~-7~-1~-|  x2
G|----------|
C|----------|

D|-----------|
A|----10~----|
F|-7~-----8~-|
C|-----------|   x2
G|-----------|
C|-----------|


Verse 2:
D|-------------------|
A|-------------------|
F|---------8-88-10-8-|
C|-0-0-7-7-----------|  x4
G|-------------------|
C|-------------------|

or

D|-5-1---------5-6-|
A|-----3-----3-----|
F|-------2-3-------|
C|-----------------|  x4
G|-----------------|
C|-----------------|


D|---------------------------|
A|---------------------------|
F|---------------------------|
C|-00-77-10-31-00-77-1-01-31-| x4
G|-00-77-10-31-00-77-1-01-31-|
C|-00-77-10-31-00-77-1-01-31-|


Pre-Chorus:
D|----------------------|
A|----------------------|
F|-----------------4-44-|
C|-8888-7777-00-30------|  x2
G|-8888-7777-00-30------|
C|-8888-7777-00-30------|

D|-------------------------------|
A|-------------------------------|
F|-------------------------------|
C|-8888-7777-8888-7777-8888-7755-|
G|-8888-7777-8888-7777-8888-7755-|
C|-8888-7777-8888-7777-8888-7755-|

Solo Part:
D|---------------------|
A|---------------------|
F|-7~-6~-7~-9~-10~-12~-|
C|---------------------|
G|---------------------|
C|---------------------|


Chorus 2:
D|---------------------------|
A|---------------------------|
F|---------------------------|
C|-00-77-11-31-00-77-1-01-31-| x4
G|-00-77-11-31-00-77-1-01-31-|
C|-00-77-11-31-00-77-1-01-31-|

Solo Part:
D|----------|
A|----------|
F|----------|
C|-0~-7~-1~-|  x2
G|----------|
C|----------|

D|-----------|
A|----10~----|
F|-7~-----8~-|
C|-----------|   x2
G|-----------|
C|-----------|


Bridge:
D|---------------------------|
A|---------------------------|
F|---------------------------|
C|-00-77-11-31-00-77-1-01-31-| x4
G|-00-77-11-31-00-77-1-01-31-|
C|-00-77-11-31-00-77-1-01-31-|

Solo Part:

D|-5-1---------5-6-|
A|-----3-----3-----|
F|-------2-3-------|
C|-----------------|  x2
G|-----------------|
C|-----------------|

D|-10\-10\-10\-5\-|
A|----------------|
F|----------------|
C|----------------|
G|----------------|
C|----------------|


Pre-Chorus:
D|----------------------|
A|----------------------|
F|-----------------4-44-|
C|-8888-7777-00-30------|  x2
G|-8888-7777-00-30------|
C|-8888-7777-00-30------|

D|-------------------------------|
A|-------------------------------|
F|-------------------------------|
C|-8888-7777-8888-7777-8888-7755-|
G|-8888-7777-8888-7777-8888-7755-|
C|-8888-7777-8888-7777-8888-7755-|


Solo Part:
D|----------------------|
A|----------------------|
F|-7~-9~-10~-12~-10~-9~-|
C|----------------------|
G|----------------------|
C|----------------------|


Final Chorus:
D|---------------------------|
A|---------------------------|
F|---------------------------|
C|-00-77-11-31-00-77-1-01-31-| x4
G|-00-77-11-31-00-77-1-01-31-|
C|-00-77-11-31-00-77-1-01-31-|

Solo Part:
D|----------|
A|----------|
F|----------|
C|-0~-7~-1~-|  x2
G|----------|
C|----------|

D|-----------|
A|----10~----|
F|-7~-----8~-|
C|-----------|   x2
G|-----------|
C|-----------|

Outro:
(Fade out)
D|-------------------|
A|-------------------|
F|---------8-88-10-8-|
C|-0-0-7-7-----------|  x8
G|-------------------|
C|-------------------|

or

D|-5-1---------5-6-|
A|-----3-----3-----|
F|-------2-3-------|
C|-----------------|  x8
G|-----------------|
C|-----------------|

************************************

| /   slide up
| \   slide down
| ~   vibrato
| x   Mute note

************************************

If you have any comments/corrections, please say in either the comments box or leave me

Almost there ...

Sign in to get your own page with links to favourite songs and more. You are just one click away...

Login with Facebook Login with Google