Log in

One click and you are in

Login with Facebook Login with Google

Why sign up and log in

Guitar Tabs Explorer
Weatherday guitar tabs for Mio min mio

Guitar tabs

Tuning: Standard (E A D G B E)

PART I


Intro:

e|-------------------------------------------------|
B|-------------------------------------------------|
G|-------------------------------------------------| x2
D|-7-----------2-----------12----------9-----------|
A|-7-----------2-----------12----------9-----------|
E|-5-----------0-----------10----------7-----------|
   |  |  |  |  |  |  |  |  |  |  |  |  |  |  |  |

Verse:

e|-------------------------------------------------|
B|-------------------------------------------------|
G|-------------------------------------------------| x2
D|-7-----2-----11----4-----7-----2-----12----9-----|
A|-7-----2-----11----4-----7-----2-----12----9-----|
E|-5-----0-----9-----2-----5-----0-----10----7-----|
   |  |  |  |  |  |  |  |  |  |  |  |  |  |  |  |


Chorus:

e|-------------------------------------------------------------------------------------------------|
B|-------------------------------------------------------------------------------------------10----|
G|-------------------------9-----------11----14----------11----------------------9--10-11----------|
D|-11----------12----------9-----------11----14----------11----------------11-12-------------------|
A|-11----------12----------7-----------9-----12----------9-----------------------------------------|
E|-9-----------10----------------------------------------------------------------------------------|
   |           |           |           |           |           |           |           |

e|-------------------------9-----------------------------------------------------------------------|
B|-10----------9-----10----------10----------------------------10----9-----------12----10-9-----9--|
G|-------------------------------------10----11----------------------------11----------------11----|
D|-------------------------------------------------------------------------------------------------|
A|-------------------------------------------------------------------------------------------------|
E|-------------------------------------------------------------------------------------------------|
   |     |     |     |     |     |     |     |     |     |     |     |     |     |     |     |

e|-------------------------9-----------------------------------------------------12-12-12-12-12----|
B|-10----------10----9--10-------10----------------------------------------------------------------|
G|-------------------------------------10----11----11----11----11----------------------------------|
D|----------------------------------------------------------------11-11-11----11-------------------|
A|-------------------------------------------------------------------------------------------------|
E|-------------------------------------------------------------------------------------------------|
   |     |     |     |     |     |     |     |     |     |     |     |     |     |     |     |

e|-------------------------------------------------------------------------------------------------|
B|-------------------------------------------------------------------------------------------------|
G|-------------------------9-----------11----14----------11----------------------9--10-11----------|
D|-11----------12----------9-----------11----14----------11----------------11-12-------------11----|
A|-11----------12----------7-----------9-----12----------9-----------------------------------------|
E|-9-----------10----------------------------------------------------------------------------------|
   |           |           |           |           |           |           |           |

e|-------------------------9-----------------------------------------------------------------------|
B|----------10-10-9--9--10-------10----------------------------10-10-10----9--------9--10-12-10-9--|
G|-------------------------------------10----11----------------------------------11----------------|
D|-------------------------------------------------------------------------------------------------|
A|-------------------------------------------------------------------------------------------------|
E|-------------------------------------------------------------------------------------------------|
   |     |     |     |     |     |     |     |     |     |     |     |     |     |     |     |

e|-------------------------9--------10-9-----------------------------------------------------------|
B|------------10-10-9--10--------------------12-10-9-----10----10-9--10-10-------14-14-14-14-14----|
G|----------------------------------------------------------------------------9--------------------|
D|-12----------------------------------------------------------------------------------------------|
A|-------------------------------------------------------------------------------------------------|
E|-------------------------------------------------------------------------------------------------|
   |     |     |     |     |     |     |     |     |     |     |     |     |     |     |     |


Bridge:

e|-------------------------------------------------|
B|-------------------------------------------------|
G|-------------------------------------------------| x2
D|-7-----2-----11----4-----7-----2-----12----9-----| end on A chord diagramA majorA power chord
A|-7-----2-----11----4-----7-----2-----12----9-----|
E|-5-----0-----9-----2-----5-----0-----10----7-----|
   |  |  |  |  |  |  |  |  |  |  |  |  |  |  |  |


Outro:

e|-------------------------------------------------------------------------------------------------|
B|-------------------------------------------------------------------------------------------------|
G|-------------------------------------------------------------------------------------------------| x2
D|-------7-----------7-----------9-----------9-----------10----------10----------14----------14----|
A|-------------------------------------------------------------------------------------------------|
E|----5-----5-----5-----5-----7-----7-----7-----7-----8-----8-----8-----8-----12----12----12----12-|
   |     |     |     |     |     |     |     |     |     |     |     |     |     |     |     |

e|-9-----9-----12----------7-----7-----9-----------9-----9-----9-----------5-----7-----9-----------|
B|-10----------9-----------8-----------9-----------10----------9-----------5-----7-----9-----------|
G|-11----------9-----------9-----------9-----------11----------9-----------6-----6-----9-----------|
D|-11----------11----------9-----------7-----------11----------11----------7-----7-----7-----------|
A|-------------------------------------------------------------------------------------------------|
E|-------------------------------------------------------------------------------------------------|
   |  |  |  |  |  |  |  |  |  |  |  |  |  |  |  |  |  |  |  |  |  |  |  |  |  |  |  |  |  |  |  |

e|-------------------------------------------------------------------------------------------------|
B|-10----------------------------10----9-----10----10----------------10----11----10----------------|
G|----------------12-10-9--------------------------------------------------------------9-----------|
D|-------------------------12----------------------------------------------------------------12----|
A|-------------------------------------------------------------------------------------------------|
E|-------------------------------------------------------------------------------------------------|
   |     |     |     |     |     |     |     |     |     |     |     |     |     |     |     |

e|-------------------------------------------------|
B|-------------------------------------------------|
G|-------9-----------9-----7-----------7-----------|
D|-8-----------10----------8-----------7-----------|
A|-------------------------------7-----------------|
E|-------------------------------------------------|
   |     |     |     |     |     |     |     |

↓ Add and view comments below ↓

What do you think about this song and these tabs?

Add your comments, questions, rant or a thumbs up below.

Almost there ...

Sign in to get your own page with links to favourite songs and more. You are just one click away...

Login with Facebook Login with Google