Search tabs and chords

Search for song, artist or band

Log in

One click and you are in

Login with Facebook Login with Google

Why sign up and log in

Guitar Tabs Explorer
We The Kings guitar tabs for Sad song acoustic

Guitar tabs

  • Capo on 1st
Tuning: Standard (E A D G B E)

Difficulty: Advanced

Intro:

e|---3p0-----3p0-----3---|---------------------3p0-----3-------------|
B|-1-------1-------1---3-|-----3---3-1p0-1---1-------1---3-----3---3-|
G|-------2-------0-------|---0---0---------2-------0---------0---0---|
D|-------3---------------|-----------------3-------------------------|
A|---------------3-------|-------------------------3-----------------|
E|-----------------------|-3-------------------------------3---------|
Verse 1:

e|--------------------------0---------0---------0-----------------|----------------|
B|-------3----------------3---3\1-------3p1-------3-3---1-----3/5-|----------------|
G|-----5------0-------4/5-----------2---------2-----------2-------|-----5-------5--|
D|---5------0---0---0-------------2---------2---3-----3-----3-----|---5---5---5----|
A|-3------------------------0---------0---------------------------|-3-------3------|
E|---------3-------3----------------------------------------------|----------------|

e|---------------------0---------0-----|-----0-------------|
B|-3-----------------3---3\1-------3p1-|-------3-3---1-----|
G|-------0-------4/5-----------2-------|---2-----------2---|
D|-----0---0---0-------------2---------|-2---3-----3-----3-|
A|---------------------0---------0-----|-------------------|
E|---3-------3-------------------------|-------------------|


Pre-Chorus 1:

e|-------------0----------|-----0-----------0---------------|
B|-1-1-1---1h3---0---0----|-1h3-----3-3p1-1---3p1-3---------|
G|---2-----2---------0----|---------2-----------------------|
D|---2-----2---------2----|-------3-------3-----------------|
A|---0---0-----------2----|---------------------------------|
E|-----------------0-0--0-|-----------------------3-3-3-3-3-|

Chorus 1:

e|---3p0-----3p0-----3---|-------0-----3p0------|
B|-1-------1-------1---3-|---3-1-----1-------1--|
G|-------2-------0-------|---0-------2-----2----|
D|-------3---------------|---0-------2-----3----|
A|---------------3-------|---------0------------|
E|-----------------------|-3--------------------|

e|-3p0---0------------------|-3p0-----3p0-----3---------0-----------|-------------0-------------------|
B|-------1-3-3-----3---3--1-|-------1-------1---3---3-1-----3-1h3p1-|---1---------------3---1/3-3-3-3-|
G|-------0-------0---0------|-----2-------0---------0-------2-------|-2---------2---------------------|
D|--------------------------|-----3-----------------0-------2-------|-----3---------------------------|
A|-----3--------------------|-------------3---------------0---------|---------------------------------|
E|-------------3------------|---------------------3-----------------|-------x-3-------x---3-----------|


Interlude 1:

e|-----3p0-----3-------------------|-----3p0-----3--------------|
B|---1-------1---3-----3---3-1p0-1-|---1-------1---3----3---3---|
G|-2-------0---------0---0---------|-2-------0--------0---0-----|
D|-3-------------------------------|-3--------------------------|
A|---------3-----------------------|---------3------------------|
E|-----------------3---------------|-----------------3----------|


Verse 2:

e|--------------------------0---------0---------0-----------------|----------------|
B|-------3----------------3---3\1-------3p1-------3-3---1-----3/5-|----------------|
G|-----5------0-------4/5-----------2---------2-----------2-------|-----5-------5--|
D|---5------0---0---0-------------2---------2---3-----3-----3-----|---5---5---5----|
A|-3------------------------0---------0---------------------------|-3-------3------|
E|---------3-------3----------------------------------------------|----------------|

e|---------------------0---------0-----|-----0-------------|
B|-3-----------------3---3\1-------3p1-|-------3-3---1-----|
G|-------0-------4/5-----------2-------|---2-----------2---|
D|-----0---0---0-------------2---------|-2---3-----3-----3-|
A|---------------------0---------0-----|-------------------|
E|---3-------3-------------------------|-------------------|


Pre-Chorus 2:

e|-------------0----------|-----0-----------0---------------|
B|-1-1-1---1h3---0---0----|-1h3-----3-3p1-1---3p1-3---------|
G|---2-----2---------0----|---------2-----------------------|
D|---2-----2---------2----|-------3-------3-----------------|
A|---0---0-----------2----|---------------------------------|
E|-----------------0-0--0-|-----------------------3-3-3-3-3-|


Chorus 2:

e|---3p0-----3p0-----3---|-------0-----3p0------|
B|-1-------1-------1---3-|---3-1-----1-------1--|
G|-------2-------0-------|---0-------2-----2----|
D|-------3---------------|---0-------2-----3----|
A|---------------3-------|---------0------------|
E|-----------------------|-3--------------------|

e|-3p0---0------------------|-3p0-----3p0-----3---------0-----------|-------------0-------------------|
B|-------1-3-3-----3---3--1-|-------1-------1---3---3-1-----3-1h3p1-|---1---------------3---1/3-3-3-3-|
G|-------0-------0---0------|-----2-------0---------0-------2-------|-2---------2---------------------|
D|--------------------------|-----3-----------------0-------2-------|-----3---------------------------|
A|-----3--------------------|-------------3---------------0---------|---------------------------------|
E|-------------3------------|---------------------3-----------------|-------x-3-------x---3-----------|


Bridge:

e|----------3-0-------------3-0-----------0-------|-------------------3-0-------------3-0-----------0----|
B|----1-----1----3---1------1-----3---1---1-----0-|-------------1-----1-----3---1-----1-----3---1---1----|
G|----0-----0--------2-x----2---x-----2---2-------|-------0-----0-----0---------2-x---2---x-----2---2----|
D|----2-x------x---3---x--3-----x-----2-x-2---x---|-----0-------2-x-------x---3---x-3-----x-----2-x-2--x-|
A|--3---x-3----x--------------------0---x-0---x---|--x------x-0-3-x-3-----x-------------------0---x-0--x-|
E|-------------------------3-x-3----x-------------|------------------------------------------------------|

e|-3-3--|
B|---3--|
G|---0--|
D|---0--|
A|---2--|
E|---3--|


Interlude 2:
e|----3p0-----3p0-----3---|-------0-----3p0-----3p0---0-------|
B|--1-------1-------1---3-|---3-1-----1-------1-------1-3-3---|
G|--------2-------0-------|-----------------2---------0-------|
D|--------3---------------|-----------------3-----------------|
A|----------------3-------|---------0---------------3---------|
E|------------------------|-3-------------------------------3-|


Chorus 3:

e|---3p0-----3p0---3-3-3/4-|---4-4-4/5--(5)-5/7-8-------------|-----------------|
B|-1-------1-x-------x-----|-----x----------x-----5-------5---|-5\3---1/3-3-3-3-|
G|-------2---x---0---x-----|-----x----------x-----------------|-----------------|
D|-------3--(3)------x-----|-----x----------x-----7-x---7---x-|-----------------|
A|---------------3---x-----|-----x-----0----x---8---x-8-----x-|-----------------|
E|-------------------------|-3---x----------------------------|-----3-----------|


Postlude:

e|-----3p0-----3-------------------|-----3p0-----3-----------------|
B|---1-------1---3-----3---3-1p0-1-|---1-------1---3-----3---3-----|
G|-2-------0---------0---0---------|-2-------0---------0---0-------|
D|-3-------------------------------|-3-----------------------------|
A|---------3-----------------------|---------3---------------------|
E|-----------------3---------------|-----------------3-------------|


*************************

x = thumb slap
p = pull-off
h = hammer on
/ = slide up
\ = slide down

*************************

Other versions of Sad Song Acoustic

Sad songChords
Sad song acousticChords
Sad songTabs

Almost there ...

Sign in to get your own page with links to favourite songs and more. You are just one click away...

Login with Facebook Login with Google