Log in

One click and you are in

Login with Facebook Login with Google

Why sign up and log in

Guitar Tabs Explorer
We The Kingdom bass tabs for Holy water

Bass tabs

Play with CADG tuning

Key:

~ let ring
h hammer on
p pull off
\ slide down
Intro:

   Start small here. (intro)
G|-----------------------------------------|
D|-----------------------------------------|
A|------------5~---------------------------|
C|---0~---------------5~---2h4p20-5~-------|

G|-----------------------------------------|
D|-----(1’s & 3’s)-------------------------|
A|------3-13133-1-1--1---------------------|
C|----0---------------5-5-552--------------|

G|-----------------------------------------|
D|-----------------------------------------|
A|------3-13133-1-1--1---------------------|
C|----0---------------5-5-552--------------|

Pre-verse:

G|-----------------------------------------|
D|-----------------------------------------|
A|------------5~---------------------------|
C|---0~---------------5~---2h4p20-5~-------|

Verse 1:

G|-----------------------------------------|
D|-----------------------------------------|
A|-----------------------------------------|
C|-----------------------------------------|

G|-----------------------------------------|
D|-----------------------------------------|
A|------------5~---------------------------|
C|---0~---------------5~---2h4p20-5~-------|


Chorus:

G|-----------------------------------------|
D|-----------------------------------------|
A|---------------Don’t Play----------------|
C|-----------------------------------------|

G|-----------------------------------------|
D|-----(1’s & 3’s)-------------------------|
A|------3-13133-1-1--1---------------------|
C|----0---------------5-5-552--------------|x2


Verse 2:

G|-----------------------------------------|
D|-----------------------------------------|
A|------------5~---------------------------|
C|---0~---------------5~---2h4p20-5~-------|

G|-----------------------------------------|
D|-----------------------------------------|
A|------------5~---------------------------|
C|---0~---------------5~---2h4p20-5~-------|


Chorus:

G|-----------------------------------------|
D|-----(1’s & 3’s)-------------------------|
A|------3-13133-1-1--1---------------------|
C|----0---------------5-5-552--------------|x3

G|-----------------------------------------|
D|-----------------------------------------|
A|-----------------------------------------|
C|----0~~~------------0~-------------------|


Bridge:

G|-----------------------------------------|
D|--------10-10----------10-10--12---------|
A|------10-------------10------------------|
C|-----------------------------------------|

G|-----------------------------------------|
D|--------10-10----------10-10--14---------|
A|------10-------------10------------------|
C|-----------------------------------------|

G|-----------------------------------------|
D|--------10-10----------10-10--12---------|
A|------10-------------10------------------|
C|-----------------------------------------|

G|-----------------------------------------|
D|--------10-10--12-10---91214-------------|
A|------10--------------------12-10--------|
C|-----------------------------------------|

G|-----------------------------------------|
D|--------10-10--12-10-----10-10--12-10----|
A|------10---------------10----------------|
C|-----------------------------------------|

G|-----------------------------------------|
D|--------10-10--12-10-----10-10--14\------|
A|------10---------------10----------------|
C|-----------------------------------------|

G|-----------------------------------------|
D|-----------------------------------------|
A|-----------------------------------------|
C|----0-0-0-4-5-5-5-7-9-9-7-7-5-5-4-2-0----|


Chorus 2:

G|-----------------------------------------|
D|--------------Don’t play-----------------|
A|-----------------------------------------|
C|-----------------------------------------|

G|-----------------------------------------|
D|--------------Drum solo------------------|
A|-----------------------------------------|
C|-----------------------------------------|

G|-----------------------------------------|
D|-----(1’s & 3’s)-------------------------|
A|------3-13133-1-1--1---------------------|
C|----0---------------5-5-552--------------|x2

G|-----------------------------------------|
D|-----------------------------------------|
A|------3-13133-1-1--1---------------------|
C|----0---------------5-5-552--------------|x2

G|-----------------------------------------|
D|-----------------------------------------|
A|------3-13133-1~-------------------------|
C|----0------------------------------------|

End:

G|-----------------------------------------|
D|-----(1’s & 3’s)-------------------------|
A|------3-13133-1-1--1---------------------|
C|----0---------------5-5-552--------------|x2

G|-----------------------------------------|
D|-----------------------------------------|
A|-----------------------------------------|
C|----0~~~---------------------------------|


************************************

| ~ Vibrato
| h Hammer-on
| p Pull-off
| \ Slide down


************************************

Almost there ...

Sign in to get your own page with links to favourite songs and more. You are just one click away...

Login with Facebook Login with Google