Log in

One click and you are in

Login with Facebook Login with Google

Why sign up and log in

Guitar Tabs Explorer
We Are The In Crowd bass tabs for We need a break

We Need A Break bass tab - We Are The In Crowd

We Are The In Crowd bass tabs for We need a break

Bass tabs

Album: Guaranteed To Disagree
Bass Player: Mike Ferri

Tuning: Drop C

Tabbed By : posem21uk
| / slide up
| \ slide down
| h hammer-on
| p pull-off
| ~ vibrato
| + harmonic
| x Mute note
| <> Bend note



Intro (0:05)

F|--------------------------------------------------------------------|
C|--------------------------------------------------------------------|
G|-----------------3--3-3-3-3-3-3--2--2-2-2-2-2-2--5--5-5-5-5-5-5-----|
C|-5--5-5-5-5-5-5-----------------------------------------------------|

F|--------------------------------------------------------------------|
C|--------------------------------------------------------------------|
G|-----------------3--3-3-3-3-3-3--2--2-2-2-2-2-2--5--5-5-5-5-5-5-----|
C|-5--5-5-5-5-5-5-----------------------------------------------------|


Verse (0:19)

F|--------------------------------------------------------------|
C|--------------------------------------------------------------|
G|-------------------------------3333-3333-----------5555-5555--|
C|-5-------------------5555-5555-----------7777-7777------------|

[Notes are in groups of 4 so that its easier to read, no other reason]

Pre-Chorus (0:33)

F|----------------4-5-4----------------------------|
C|--------------5-------7-5------------------------|
G|-3-33-5-5------------------3-33-5-5--------------|
C|----------5-------------------------5--555-5555--|

F|------------------------------------|
C|------------------------------------|
G|-3333-2222-0000-2222-5555-5555-5----|
C|------------------------------------|


Chorus (0:47)

F|------------------------------------------|
C|------------------------------------------|
G|--------------------3-3-3333-----5555-----|
C|-5-5-5555--0-0-0000----------5-5----------|

F|-------------------------------------------------------------|
C|-------------------------------------------------------------|
G|-7777-7777--5555-5555--3333-3333--15-15-15-15--15-15-15-15---|
C|-------------------------------------------------------------|


Verse (1:02)

F|---------------------------------------------------------------------------------|
C|---------------------------------------------------------------------------------|
G|-----------3333-3333-----------3333-3333-----------3333-3333-----------5555-5555-|
C|-5555-5555-----------7777-7777-----------5555-5555-----------7777-7777-----------|


Pre-Chorus (1:16)

F|----------------4-5-4------------------------------------------------------|
C|--------------5-------7-5--------------------------------------------------|
G|-3-33-5-5------------------3-33-5-5----------------3333-2222-0000-2222-5\--|
C|----------5-------------------------5--555-5555----------------------------|


Chorus (1:30)

F|------------------------------------------|
C|------------------------------------------|
G|--------------------3-3-3333-----5555-----|
C|-5-5-5555--0-0-0000----------5-5----------|

F|---------------------------------------------|
C|---------------------------------------------|
G|-7777-7777--5555-5555--3333-3333-3333-3333---|
C|---------------------------------------------|

F|------------------------------------------|
C|------------------------------------------|
G|--------------------3-3-3333-----5555-----|
C|-5-5-5555--0-0-0000----------5-5----------|

F|-------------------------------------------------------------|
C|-------------------------------------------------------------|
G|-7777-7777--5555-5555--3333-3333--15-15-15-15--15-15-15-15---|
C|-------------------------------------------------------------|


Bridge (1:59)

F|---------------------------------------------------------------------------------|
C|---------------------------------------------------------------------------------|
G|-----------3333-3333-------------------------------3333-3333---------------------|
C|-7777-7777-----------5555-5555-0000-0000-7777-7777-----------5555-5555-0000-0000-|


Pre-Chorus (2:13)

F|----------------------------------------------------------|
C|----------------------------------------------------------|
G|--3---------------3-----------------3333-2222-0000-2222---|
C|----------5---------------5-------------------------------|


Chorus (2:27)

F|------------------------------------------|
C|------------------------------------------|
G|--------------------3-3-3333-----5555-----|
C|-5-5-5555--0-0-0000----------5-5----------|

F|---------------------------------------------|
C|---------------------------------------------|
G|-7777-7777--5555-5555--3333-3333-3333-3333---|
C|---------------------------------------------|

F|--------------------------------------------|
C|--------------------------------------------|
G|----------------------3333-3333------5555---|
C|-5555-5555--0000-0000-----------5555--------|

F|-------------------------------------------------------------|
C|-------------------------------------------------------------|
G|-7777-7777--5555-5555--3333-3333--15-15-15-15--15-15-15-15---|
C|-------------------------------------------------------------|


Ending (2:56)

F|------------------------------------------------------------|
C|------------------------------------------------------------|
G|-------------14-14-14-14--14-14-14-14--3333-3333-3333-3333--|
C|--7777-7777-------------------------------------------------|

F|------||
C|------||
G|------||
C|--5---||

Almost there ...

Sign in to get your own page with links to favourite songs and more. You are just one click away...

Login with Facebook Login with Google