Log in

One click and you are in

Login with Facebook Login with Google

Why sign up and log in

Guitar Tabs Explorer
Waterparks bass tabs for Telephone

Bass tabs

Tuning: Standard (E A D G)

No bass until 0:16


Pre-chorus:
G|------------------------------------------------------------------|
D|------------------------------------------------------------------|
A|-------------------------6-6-------------------------------6-6----|
E|-11\6-6-8-8-4-4-4-4--6-6-----4-4-4-4--6-6-8-8-4-4-4-4--6-6-----4\-|
Chorus:
G|--------------------------------------------------------------------------------------|
D|------------------8---5-6-8-------------------------8---5-6-8-------------------------|
A|--------------------8-------6-------------------------8-------6-----------------------|
E|-6-6-8-8-4-4--6-6-------------4-4--6-6-8-8-4-4--6-6-------------4-4--6-6-8-8-4-4--6-6-|

Interlude: Verse 2:
G|---------|--------------------------------------------------------------------|
D|---------|--------------------------------------------------------------------|
A|---------|----------------------6-6-------------------------------6-6---------|
E|-4L-6L---|-6-6-8-8-4-4-4-4--6-6-----4-4-4-4--6-6-8-8-4-4-4-4--6-6-----4-4-4-4-|


Pre-Chorus:
G|-------------------------------------------------------------|
D|-------------------------------------------------------------|
A|----------------------6-6-------------------------------6-6--|
E|-6-6-8-8-4-4-4-4--6-6-----4-4-4-4--6-6-8-8-4-4-4-4--6-6------|


Chorus:
G|--------------------------------------------------------------------------------------|
D|------------------8---5-6-8-------------------------8---5-6-8-------------------------|
A|--------------------8-------6-------------------------8-------6-----------------------|
E|-6-6-8-8-4-4--6-6-------------4-4--6-6-8-8-4-4--6-6-------------4-4--6-6-8-8-4-4--6-6-|

Interlude:
G|-------------------------------------------------|
D|---------------5-----------5---------------------|
A|-------------6---6L------6---6L--6-6-6-6-6-6-6-6-|
E|-4L-6L--8\-6--------8\-6-------------------------|

No bass

Chorus:


Chorus:
G|--------------------------------------------------------------------------------------|
D|------------------8---5-6-8-------------------------8---5-6-8-------------------------|
A|--------------------8-------6-------------------------8-------6-----------------------|
E|-6-6-8-8-4-4--6-6-------------4-4--6-6-8-8-4-4--6-6-------------4-4--6-6-8-8-4-4--6-6-|


Instrumental:
G|--------------------------------------------------------------------------------------|
D|------------------8---5-6-8-------------------------8---5-6-8-------------------------|
A|--------------------8-------6-------------------------8-------6-----------------------|
E|-6-6-8-8-4-4--6-6-------------4-4--6-6-8-8-4-4--6-6-------------4-4--6-6-8-8-4-4--6-6-|


Outro:
G|---------------------------------------------------------------------------|
D|---------------------------------------------------------------------------|
A|---------------------------------------------------------------------------|
E|-4L-6L-4l-6L---------------------------------------------------------------|


************************************

| \ Slide down
| L Let Ring


************************************

Almost there ...

Sign in to get your own page with links to favourite songs and more. You are just one click away...

Login with Facebook Login with Google