Search tabs and chords

Browse bands and artists

A B C D E F G H I J K L M N O P Q R S T U V W X Y Z #

Log in

[ Register here | Forgot password ]

Guitar Tabs Explorer
Print

Solo tabs :

Long Strange Golden Road tab by The Waterboys

08:48
e|-------8--------------|----------------|--------|---------|--------|---------|------------|
B|-8--b--8--b-8--br-----|-10-------------|--------|---------|--------|---------|------------|
G|---10----10---10-8----|-10-8------8----|--------|---------|--------|---------|------------|
D|-------------------10-|------10-8---10-|------8-|------10-|------8-|------10-|------8~~~~-|
A|----------------------|----------------|-8-10---|-8-10----|-8-10---|-8-10----|-8-10-------|
E|----------------------|----------------|--------|---------|--------|---------|------------|

e|------------------------|------------------------|------------------------------------|
B|------------------------|------------------------|------------------------------------|
G|------------------------|------------------------|-------------------------------8----|
D|-10-8------8------------|------------------------|----------------s---8-----8------10-|
A|-10---10-8---10---------|-----6----6----6----6---|-6----6----6-8-8\10----10---10------|
E|----------------11-10-8-|-6-8---8----8----8----8-|---8----8---------------------------|


e|----------------------------|-------|-------|-------|-------|--------------|
B|--h-------------------------|--br---|--br---|--br---|--br---|--------------|
G|-8-10-10~~~-10~~~-10-8-10-8-|-10--8-|-10--8-|-10--8-|-10--8-|-10-8---------|
D|----------------------------|-------|-------|-------|-------|------10-8-10-|
A|----------------------------|-------|-------|-------|-------|--------------|
E|----------------------------|-------|-------|-------|-------|--------------|


e|-------------|--------|-----------|------|----------------|-------------------|
B|-------------|--------|-----------|------|---s---11-11-11-|---s------11-11-11-|
G|--h---8-8----|-8-8----|-8----8----|-8-10-|-10\12----------|-10\12-12----------|
D|-8-10-----10-|-8-8-10-|-8-10-8-10-|-8----|----------------|-------------------|
A|-------------|--------|-----------|------|----------------|-------------------|
E|-------------|--------|-----------|------|----------------|-------------------|

e|------p-----p-----p------p------11-----s-----------p-----p---|--br----|--br----|--br----|--br----|--br----|
B|-11-13-11-13-11-13-11--13-11-------13--\18-18-18-18-16-18-16-|-18--16-|-18--16-|-18--16-|-18--16-|-18--16-|
G|-----------------------------12------------------------------|--------|--------|--------|--------|--------|
D|-------------------------------------------------------------|--------|--------|--------|--------|--------|
A|-------------------------------------------------------------|--------|--------|--------|--------|--------|
E|-------------------------------------------------------------|--------|--------|--------|--------|--------|


e|-------|--------------------------------------------------|
B|-------|-----------------s--------------------s-----------|
G|-17-17-|-17~~-17~~-15-15-\13-12~~-10-13-12--10\8-10-12~~~-|
D|-------|--------------------------------------------------|
A|-------|--------------------------------------------------|
E|-------|--------------------------------------------------|


e|--------------------------|--------------|--------------------------|
B|--br----p-----------------|--------------|--------------------------|
G|-10-8-10-8-7----7---------|---p----------|----------b---r--h--------|
D|-------------10---10-8----|-10-8----8-10-|-10-8-10-10-----8-10~~~~~-|
A|-----------------------10-|------10------|--------------------------|
E|--------------------------|--------------|--------------------------|

Other versions of Long Strange Golden Road

Long strange golden roadChords

Comments

The Waterboys guitar tabs for Long strange golden road