Search tabs and chords

Browse bands and artists

A B C D E F G H I J K L M N O P Q R S T U V W X Y Z #

Log in

[ Register here | Forgot password ]

Guitar Tabs Explorer
Print

Bass tabs :

Fishermans Blues bass tab by The Waterboys

-------------------------------------------------------------------
                     Artist - The Waterboys
                    ************************
                    Song - Fishermans Blues
                   *************************
                Album - Fishermans Blues (1988)
              *********************************
                     Tabbed By - Ayreon77
                    **********************
-------------------------------------------------------------------

00:12
Intro
******
G|--------------|-------------------|-------------|----------------------|
D|--------------|-------------------|-------------|----------------------|
A|-3~~-3-3--3-3-|-3-------------5~~-|-------5~~---|-------3~~-3----------|
E|--------------|---0-1-2-3~~-3-----|-3~~-3-----3-|-1~~-1-------1--1-1-3-|


G|------------------|---------------------|
D|------------------|---------------------|
A|-------7~~-7------|-----2-3~~-3-------3-|
E|-5~~-5--------5~~-|-5-5---------3~~-3---|


---------------------------
00:28
Verse 1
********
G|-------------------|-----------|----------------------|
D|-------------------|-----------|----------------------|
A|-3-------------5~~-|-------5~~-|-------3~~-3----------|
E|---0-1-2-3~~-3-----|-3~~-3-----|-1~~-1-------1--1-1-3-|


G|------------------|---------------------|
D|------------------|---------------------|
A|-------7~~-7------|-----2-3~~-3-------3-|
E|-5~~-5--------5~~-|-5-5---------3~~-3---|

G|-------------------|-----------|----------------------|
D|-------------------|-----------|----------------------|
A|-3-------------5~~-|-------5~~-|-------3~~-3----------|
E|---0-1-2-3~~-3-----|-3~~-3-----|-1~~-1-------1--1-1-3-|


G|------------------|---------------------|
D|------------------|---------------------|
A|-------7~~-7------|-----2-3~~-3-------3-|
E|-5~~-5--------5~~-|-5-5---------3~~-3---|


---------------------------
00:56
Chorus
*******
G|-----------------------|-------|------------------------|
D|-----------------------|-------|------------------------|
A|-3-------------5~~-5---|---5---|-------3~~-3------------|
E|---0-1-2-3~~-3-------3-|-3---3-|-1~~-1-------1-1--1-1-3-|


G|----------------------|
D|----------------------|
A|-------7~~-7----------|
E|-5~~-5--------5~~-5-5-|


---------------------------
01:08
VIOLIN
*******
G|-----------------------|----------------------|
D|-----------------------|----------------------|
A|-------5~~-5-------5---|-------3~~-3----------|
E|-3~~-3-------3~~-3---3-|-1~~-1-------1--1-1-3-|


G|------------------|-----------------------|
D|------------------|-----------------------|
A|-------7~~-7------|-------2-3~~-3-------3-|
E|-5~~-5--------5~~-|-5-5-5---------3~~-3---|


---------------------------
01:20
Verse 2
********
G|-------------------|-----------|----------------------|
D|-------------------|-----------|----------------------|
A|-3-------------5~~-|-------5~~-|-------3~~-3----------|
E|---0-1-2-3~~-3-----|-3~~-3-----|-1~~-1-------1--1-1-3-|

G|------------------|---------------------|
D|------------------|---------------------|
A|-------7~~-7------|-----2-3~~-3-------3-|
E|-5~~-5--------5~~-|-5-5---------3~~-3---|


G|-------------------|-----------|----------------------|
D|-------------------|-----------|----------------------|
A|-3-------------5~~-|-------5~~-|-------3~~-3----------|
E|---0-1-2-3~~-3-----|-3~~-3-----|-1~~-1-------1--1-1-3-|


G|------------------|---------------------|
D|------------------|---------------------|
A|-------7~~-7------|-----2-3~~-3-------3-|
E|-5~~-5--------5~~-|-5-5---------3~~-3---|


---------------------------
01:48
Chorus
*******
G|-----------------------|-------|------------------------|
D|-----------------------|-------|------------------------|
A|-3-------------5~~-5---|---5---|-------3~~-3------------|
E|---0-1-2-3~~-3-------3-|-3---3-|-1~~-1-------1-1--1-1-3-|


G|------------------------|
D|------------------------|
A|-------7~~-7--------7---|
E|-5~~-5--------5~~-5---5-|


---------------------------
02:00
VIOLIN
*******
G|-----------------------|----------------------|
D|-----------------------|----------------------|
A|-------5~~-5-------5---|-------3~~-3----------|
E|-3~~-3-------3~~-3---3-|-1~~-1-------1--1-1-3-|


G|------------------|-----------------------|
D|------------------|-----------------------|
A|-------7~~-7------|-------2-3~~-3-------3-|
E|-5~~-5--------5~~-|-5-5-5---------3~~-3---|

02:13
G|-------------------|-------------|----------------------|
D|-------------------|-------------|----------------------|
A|-3-------------5~~-|-5-------5~~-|-------3~~-3----------|
E|---0-1-2-3~~-3-----|---3~~-3-----|-1~~-1-------1--1-1-3-|


G|------------------|---------------------|
D|------------------|---------------------|
A|-------7~~-7------|-----2-3~~-3-------3-|
E|-5~~-5--------5~~-|-5-5---------3~~-3---|


---------------------------
02:26
Verse 3
********
G|-------------------|-----------|----------------------|
D|-------------------|-----------|----------------------|
A|-3-------------5~~-|-------5~~-|-------3~~-3----------|
E|---0-1-2-3~~-3-----|-3~~-3-----|-1~~-1-------1--1-1-3-|


G|------------------|---------------------|
D|------------------|---------------------|
A|-------7~~-7------|-----2-3~~-3-------3-|
E|-5~~-5--------5~~-|-5-5---------3~~-3---|


G|-------------------|-----------|----------------------|
D|-------------------|-----------|----------------------|
A|-3-------------5~~-|-------5~~-|-------3~~-3----------|
E|---0-1-2-3~~-3-----|-3~~-3-----|-1~~-1-------1--1-1-3-|


G|------------------|---------------------|
D|------------------|---------------------|
A|-------7~~-7------|-----2-3~~-3-------3-|
E|-5~~-5--------5~~-|-5-5---------3~~-3---|


---------------------------
02:54
Chorus
*******
G|-----------------------|-------|------------------------|
D|-----------------------|-------|------------------------|
A|-3-------------5~~-5---|---5---|-------3~~-3------------|
E|---0-1-2-3~~-3-------3-|-3---3-|-1~~-1-------1-1--1-1-3-|


G|---------------------------------------|
D|---------------------------------------|
A|-------7-7--7----------2-3~~-3-------3-|
E|-5~~-5--------5-5--5-5---------3~~-3---|


---------------------------
03:07
VIOLIN
*******
G|-----------------------|-------|----------------------|
D|-----------------------|-------|----------------------|
A|-3-------------5~~-5---|---5---|-------3~~-3----------|
E|---0-1-2-3~~-3-------3-|-3---3-|-1~~-1-------1--1-1-3-|


G|------------------|-----------------------|
D|------------------|-----------------------|
A|-------7~~-7------|-7-----2-3~~-3-------3-|
E|-5~~-5--------5~~-|---5-5---------3~~-3---|


G|-----------------------|-------|----------------------|
D|-----------------------|-------|----------------------|
A|-3-------------5~~-5---|---5---|-------3~~-3----------|
E|---0-1-2-3~~-3-------3-|-3---3-|-1~~-1-------1--1-1-3-|


G|------------------|---------------------|
D|------------------|---------------------|
A|-------7~~-7------|-----2-3~~-3-------3-|
E|-5~~-5--------5~~-|-5-5---------3~~-3---|


---------------------------
03:36
Chorus
*******
G|-----------------------|-------|------------------------|
D|-----------------------|-------|------------------------|
A|-3-------------5~~-5---|---5---|-------3~~-3------------|
E|---0-1-2-3~~-3-------3-|-3---3-|-1~~-1-------1-1--1-1-3-|


G|------------------|---------------------|
D|------------------|---------------------|
A|-------7~~-7------|-----2-3~~-3-------3-|
E|-5~~-5--------5~~-|-5-5---------3~~-3---|


G|-----------------------|-------|------------------------|
D|-----------------------|-------|------------------------|
A|-3-------------5~~-5---|---5---|-------3~~-3------------|
E|---0-1-2-3~~-3-------3-|-3---3-|-1~~-1-------1-1--1-1-3-|


G|------------------|---------------------|
D|------------------|---------------------|
A|-------7~~-7------|-----2-3~~-3-------3-|Repeat again
E|-5~~-5--------5~~-|-5-5---------3~~-3---|   And Fade Out..........


ENJOY.............

"Fisherman´s Blues" is the title track from Scottish/Irish rock band The Waterboys´ album from 1988. "Fisherman´s Blues" is written by singer Mike Scott and Steve Wickham.

Comments

The Waterboys bass tabs for Fishermans blues