Log in

One click and you are in

Login with Facebook Login with Google

Why sign up and log in

Guitar Tabs Explorer
Dionne Warwick bass tabs for I say a little prayer

I Say A Little Prayer bass tab by Dionne Warwick

Dionne Warwick bass tabs for I say a little prayer

Bass tabs

Intro
G|----------------|----------------|----------------|----------------|
D|----------------|----------------|0-----0-0-----0-|0-----0---------|
A|----------------|----------------|----------------|--------0---0-0-|
E|3-----3-3-------|3-----3-3-----3-|----------------|----------------|

G|----------------|----------------|----------------|----------------|
D|----------------|----------------|0-----0---------|0-----0-----0---|
A|--------0-----0-|--------0-----0-|--------0-----0-|--------0-----3-|
E|3-----3---------|3-----3---------|----------------|----------------|

G|----------------|----------------|
D|----------------|----------------|
A|2-----2-2-------|2-----2-2-2-2---|
E|----------------|--------------2-|

 Verse
   The  ment  wake         be   put 2 beats
G|----------------|----------------|----------------|--------|
D|----------------|----------------|----------------|0-----0-|
A|----------------|0-----0-0-----0-|0-----0-0-----0-|--------|
E|0-----0-0-----0-|----------------|----------------|--------|

G|----------------|----------------|----------------|
D|----------------|----------------|----------------|
A|----------------|----------------|2-----2-2---2-2-|
E|3-----3-3-----3-|2-----2-2-----2-|----------------|

G|----------------|----------------|----------------|--------|
D|----------------|----------------|----------------|0-----0-|
A|----------------|0-----0-0-----0-|0-----0-0-----0-|--------|
E|0-----0-0-----0-|----------------|----------------|--------|

G|----------------|----------------|----------------|
D|----------------|----------------|----------------|
A|----------------|----------------|2-----2-2---2-2-|
E|3-----3-3-----3-|2-----2-2-----2-|----------------|

 Chorus      3 beats
G|----------------|------------|----------------|----------------|
D|----------------|------------|----------------|----------------|
A|3-----3-3-----3-|2-----2---2-|----------------|3-----3-3-----3-|
E|----------------|------------|2---2---2---2-2-|----------------|

G|------------|----------------|----------------|------------|
D|------------|----------------|----------------|------------|
A|2-----2---2-|----------------|3-----3-3-----3-|2-----2---2-|
E|------------|3---3---3---3-3-|----------------|------------|

G|----------------|----------------|----------------|----------------|
D|----------------|----------------|----------------|----------------|
A|----------------|3-----3-3-----3-|2---------------|----------------|
E|3---3-3-3---3-3-|----------------|----------------|----------------|

 Verse
G|----------------|----------------|----------------|--------|
D|----------------|----------------|----------------|0-----0-|
A|----------------|0-----0-0-----0-|0-----0-0-----0-|--------|
E|0-----0-0-----0-|----------------|----------------|--------|

G|----------------|----------------|----------------|
D|----------------|----------------|----------------|
A|----------------|----------------|2-----2-2---2-2-|
E|3-----3-3-----3-|2-----2-2-----2-|----------------|

G|----------------|----------------|----------------|--------|
D|----------------|----------------|----------------|0-----0-|
A|----------------|0-----0-0-----0-|0-----0-0-----0-|--------|
E|0-----0-0-----0-|----------------|----------------|--------|

G|----------------|----------------|----------------|
D|----------------|----------------|----------------|
A|----------------|----------------|2-----2-2---2-2-|
E|3-----3-3-----3-|2-----2-2-----2-|----------------|

 Chorus
G|----------------|------------|----------------|----------------|
D|----------------|------------|----------------|----------------|
A|3-----3-3-----3-|2-----2---2-|----------------|3-----3-3-----3-|
E|----------------|------------|2---2---2---2-2-|----------------|

G|------------|----------------|----------------|------------|
D|------------|----------------|----------------|------------|
A|2-----2---2-|----------------|3-----3-3-----3-|2-----2---2-|
E|------------|3---3---3---3-3-|----------------|------------|

G|----------------|----------------|----------------|----------------|
D|----------------|----------------|----------------|----------------|
A|----------------|3-----3-3-----3-|2---------------|----------------|
E|3---3-3-3---3-3-|----------------|----------------|----------------|

 Verse
G|----------------|----------------|----------------|--------|
D|----------------|----------------|----------------|0-----0-|
A|----------------|0-----0-0-----0-|0-----0-0-----0-|--------|
E|0-----0-0-----0-|----------------|----------------|--------|

G|----------------|----------------|----------------|
D|----------------|----------------|----------------|
A|----------------|----------------|2-----2-2---2-2-|
E|3-----3-3-----3-|2-----2-2-----2-|----------------|

G|----------------|----------------|----------------|--------|
D|----------------|----------------|----------------|0-----0-|
A|----------------|0-----0-0-----0-|0-----0-0-----0-|--------|
E|0-----0-0-----0-|----------------|----------------|--------|

G|----------------|----------------|----------------|
D|----------------|----------------|----------------|
A|----------------|----------------|2-----2-2---2-2-|
E|3-----3-3-----3-|2-----2-2-----2-|----------------|

 Chorus
G|----------------|------------|----------------|----------------|
D|----------------|------------|----------------|----------------|
A|3-----3-3-----3-|2-----2---2-|----------------|3-----3-3-----3-|
E|----------------|------------|2---2---2---2-2-|----------------|

G|------------|----------------|----------------|------------|
D|------------|----------------|----------------|------------|
A|2-----2---2-|----------------|3-----3-3-----3-|2-----2---2-|
E|------------|3---3---3---3-3-|----------------|------------|

G|----------------|----------------|----------------|----------------|
D|----------------|----------------|----------------|----------------|
A|----------------|3-----3-3-----3-|2---------------|----------------|
E|3---3-3-3---3-3-|----------------|----------------|----------------|

 Outro
G|----------------|----------------|----------------|----------------|
D|----------------|----------------|----------------|0-----0-0-------|
A|----------------|0-----0-0-----0-|0-----0-0-----0-|----------------|
E|0-----0-0-----0-|----------------|----------------|----------------|

G|----------------|----------------|----------------|----------------|
D|0-----0-0-----0-|----------------|--------0---0-0-|----------------|
A|----------------|----------------|----------------|----------------|
E|----------------|3-----3-3-------|3-----3---------|3-----3-3-------|

G|----------------|----------------|----------------|----------------|
D|0-----0-0-----0-|----------------|0-----0-0---0-0-|----------------|
A|----------------|----------------|----------------|----------------|
E|----------------|3-----3-3-------|----------------|3-----3-3-------|

G|----------------|----------------|----------------|----------------|
D|0-----0-0---0-0-|----------------|----------------|0-----0-------0-|
A|----------------|----------------|----------------|--------0-------|
E|----------------|3-----3-3-------|3-----3-3-------|----------------|

G|----------------|----------------|----------------|----------------|
D|0-----------0-0-|--------0-------|------0-0---0-0-|0-----0-----0-0-|
A|------0-0-------|----------------|----------------|--------0-------|
E|----------------|3-----3---------|3---------------|----------------|

G|----------------|----------------|----------------|----------------|
D|0-----------0-0-|--------0-----0-|------0-0---0-0-|0-------------0-|
A|------0-0-------|----------------|----------------|------0-0-------|
E|----------------|3-----3---------|3---------------|----------------|

G|----------------|----------------|----------------|----------------|
D|0-----------0-0-|------0-0-------|--------0-------|0-----0---------|
A|------0-0-------|----------------|----------------|--------0-------|
E|----------------|3---------------|3---------------|----------------|

G|----------------|----------------|----------------|----------------|
D|0-------------0-|--------0-------|--------0-------|----------------|
A|------0-0-------|----------------|----------------|----------------|

Almost there ...

Sign in to get your own page with links to favourite songs and more. You are just one click away...

Login with Facebook Login with Google