Log in

One click and you are in

Login with Facebook Login with Google

Why sign up and log in

Guitar Tabs Explorer
The War On Drugs bass tabs for In chains

Bass tabs

  • Tuning: Standard tuning
  • Difficulty: Intermediate
-------------------------------------------------------------------
           Artist - The War On Drugs
          ***************************
             Song - In Chains
            ******************
         Album - A Deeper Understanding
         ********************************
            Tabbed By - Ayreon77
           **********************
-------------------------------------------------------------------

Tuning = Standard
00:18

INTRO
******
G|-------------------|----------------|---------------|-------s-|
D|-9~~-9-9---9~~-9~~-|-9-9----9~~-9~~-|-9-9---9~~-9~~-|-9-9--9\-|
A|---------9---------|------9---------|-----9---------|---------|
E|-------------------|----------------|---------------|---------|

G|-------------------|---------------|---------------|-------s-|
D|-6~~-6-6---6~~-6~~-|-6-6---6~~-6~~-|-6-6---6~~-6~~-|-6-6--6\-|
A|---------6---------|-----6---------|-----6---------|---------|
E|-------------------|---------------|---------------|---------|
00:32
G|-------------------|----------------|---------------|-------s-|
D|-9~~-9-9---9~~-9~~-|-9-9----9~~-9~~-|-9-9---9~~-9~~-|-9-9--9\-|
A|---------9---------|------9---------|-----9---------|---------|
E|-------------------|----------------|---------------|---------|

G|-------------------|---------------|---------------|---------|
D|-6~~-6-6---6~~-6~~-|-6-6---6~~-6~~-|-6-6---6~~-6~~-|---6~~-6-|
A|---------6---------|-----6---------|-----6---------|-6-------|
E|-------------------|---------------|---------------|---------|

--------------------------
00:46

VERSE 1
********
G|-------------------|----------------|---------------|-------s-|
D|-9~~-9-9---9~~-9~~-|-9-9----9~~-9~~-|-9-9---9~~-9~~-|-9-9--9\-|
A|---------9---------|------9---------|-----9---------|---------|
E|-------------------|----------------|---------------|---------|

G|-------------------|---------------|---------------|---------|
D|-6~~-6-6---6~~-6~~-|-6-6---6~~-6~~-|-6-6---6~~-6~~-|---6~~-6-|
A|---------6---------|-----6---------|-----6---------|-6-------|
E|-------------------|---------------|---------------|---------|

G|-------------------|----------------|---------------|---------|
D|-------------------|----------------|---------------|---------|
A|-9~~-9-9---9~~-9~~-|-9-9----9~~-9~~-|-9-9---9~~-9~~-|---9~~-9-|
E|---------9---------|------9---------|-----9---------|-9-------|

G|-------------------|---------------|---------------|---------|
D|-------------------|---------------|---------------|---------|
A|-7~~-7-7---7~~-7~~-|-7-7---7~~-7~~-|-7-7---7~~-7~~-|---7---7-|
E|---------7---------|-----7---------|-----7---------|-7---7---|
01:14
G|-------------------|----------------|---------------|-------s-|
D|-9~~-9-9---9~~-9~~-|-9-9----9~~-9~~-|-9-9---9~~-9~~-|-9-9--9\-|
A|---------9---------|------9---------|-----9---------|---------|
E|-------------------|----------------|---------------|---------|

G|-------------------|---------------|---------------|---------|
D|-6~~-6-6---6~~-6~~-|-6-6---6~~-6~~-|-6-6---6~~-6~~-|---6---6-|
A|---------6---------|-----6---------|-----6---------|-6---6---|
E|-------------------|---------------|---------------|---------|

G|-------------------|----------------|---------------|---------|
D|-------------------|----------------|---------------|---------|
A|-9~~-9-9---9~~-9~~-|-9-9----9~~-9~~-|-9-9---9~~-9~~-|---9---9-|
E|---------9---------|------9---------|-----9---------|-9---9---|

G|-------------------|---------------|---------------|---------|
D|-------------------|---------------|---------------|---------|
A|-7~~-7-7---7~~-7~~-|-7-7---7~~-7~~-|-7-7---7~~-7~~-|-7-7---7-|
E|---------7---------|-----7---------|-----7---------|-----7---|

--------------------------
01:42
CHANGE
*******
G|---------|-----------|-------------|--------------------|--------------------|
D|---------|-----------|---6-6-6---6-|-4~~---4~~--4~~-4-4-|-4~~~-----2-4-4---4-|
A|-4~~-4-4-|-----------|-6-------6---|-----4--------------|--------4-------4---|
E|---------|-4~~~-4~~~-|-------------|--------------------|--------------------|

--------------------------
01:54

VERSE 2
********
G|-------------------|----------------|---------------|-------s-|
D|-9~~-9-9---9~~-9~~-|-9-9----9~~-9~~-|-9-9---9~~-9~~-|-9-9--9\-|
A|---------9---------|------9---------|-----9---------|---------|
E|-------------------|----------------|---------------|---------|

G|-------------------|---------------|---------------|---------|
D|-6~~-6-6---6~~-6~~-|-6-6---6~~-6~~-|-6-6---6~~-6~~-|---6---6-|
A|---------6---------|-----6---------|-----6---------|-6---6---|
E|-------------------|---------------|---------------|---------|
02:08
G|-------------------|----------------|---------------|---------|
D|-------------------|----------------|---------------|---------|
A|-9~~-9-9---9~~-9~~-|-9-9----9~~-9~~-|-9-9---9~~-9~~-|---9---9-|
E|---------9---------|------9---------|-----9---------|-9---9---|

G|-------------------|---------------|---------------|---------|
D|-------------------|---------------|---------------|---------|
A|-7~~-7-7---7~~-7~~-|-7-7---7~~-7~~-|-7-7---7~~-7~~-|-7-7---7-|
E|---------7---------|-----7---------|-----7---------|-----7---|
02:22
G|---------------------------|-------------|-------------------------------------|
D|--------------s---9--9---s-|-------------|-------------------------------------|
A|-9~~~-9-9-9--9\11------11\-|-7~~-7-7-7-7-|-7--9--11--9-------------------------|
E|---------------------------|-------------|-------------11~~-11-11--1111--11-11-|
02:32
G|-------------------------------------------------------------------------|
D|---------------------------9-9---9-------9---9------s--9---9-------------|
A|-----------------9--9----------9-------9---9-------7\9---9-------------s-|
E|-9~~-9-9--99--11------7~~----------7~~---------7~~-----------7~~-7-7--7\-|

--------------------------
02:43

CHORUS
*******
G|--------|--------------|------------------------------------|-------------------------|
D|--------|----------s---|-9~~----------------------------s---|-9~~---------------------|
A|-7--7-7-|-7--7--7-9\11-|-----11-9~~-9-11~~-9-7~~-7-7-7-9\11-|-----11-9~~-9-9--9~~-9-9-|
E|--------|--------------|------------------------------------|-------------------------|X4
                                          | |
                                        4th one leave
--------------------------                             out
03:32

BREAK
G|-------------------|----------------|---------------|----------|
D|-9~~-9-9---9~~-9~~-|-9-9----9~~-9~~-|-9-9---9~~-9~~-|---9-9--s-|
A|---------9---------|------9---------|-----9---------|-9-----9\-|
E|-------------------|----------------|---------------|----------|

G|-------------------|---------------|---------------|-----|
D|-6~~-6-6---6~~-6~~-|-6-6---6~~-6~~-|-6-6---6~~-6~~-|-6-6-|
A|---------6---------|-----6---------|-----6---------|-----|
E|-------------------|---------------|---------------|-----|

--------------------------
03:46

VERSE 3
********
G|-------------------|----------------|---------|-----------------|
D|-9~~-9-9---9~~-9~~-|-9-9----9~~-9~~-|-9-9---9-|--s---9----------|
A|---------9---------|------9---------|-----9---|-9\11---11-9---s-|
E|-------------------|----------------|---------|-------------11\-|

G|-------------------|---------------|---------------|-----------|
D|-6~~-6-6---6~~-6~~-|-6-6---6~~-6~~-|-6-6---6~~-6~~-|-6-6---6~~-|
A|---------6---------|-----6---------|-----6---------|-----6-----|
E|-------------------|---------------|---------------|-----------|
04:00
G|-------------------|----------------|---------------|----------|
D|-------------------|----------------|---------------|----------|
A|-9~~-9-9---9~~-9~~-|-9-9----9~~-9~~-|-9-9---9~~-9~~-|---9-9--s-|
E|---------9---------|------9---------|-----9---------|-9-----9\-|

G|-------------------|---------------|---------------|---------|
D|-------------------|---------------|---------------|---------|
A|-7~~-7-7---7~~-7~~-|-7-7---7~~-7~~-|-7-7---7~~-7~~-|-7-7---7-|
E|---------7---------|-----7---------|-----7---------|-----7---|
04:13
G|-------------------|----------------|---------|--s--s------------|
D|-9~~-9-9---9~~-9~~-|-9-9----9~~-9~~-|-9-9---9-|-9\11/9-----------|
A|---------9---------|------9---------|-----9---|--------11-9------|
E|-------------------|----------------|---------|-------------11-9-|

G|-------------------|---------------|---------------|----------|
D|-6~~-6-6---6~~-6~~-|-6-6---6~~-6~~-|-6-6---6~~-6~~-|-6----6~~-|
A|---------6---------|-----6---------|-----6---------|----6-----|
E|-------------------|---------------|---------------|----------|
04:27
G|-------------------|----------------|---------------|-------|
D|-------------------|----------------|---------------|-------|
A|-9~~-9-9---9~~-9~~-|-9-9----9~~-9~~-|-9-9---9~~-9~~-|-9--9--|
E|---------9---------|------9---------|-----9---------|-------|

G|---------------------|---------------|---------------|--------|
D|---------------------|---------------|---------------|--------|
A|-9-7~~-7-7---7~~-7~~-|-7-7---7~~-7~~-|-7-7---7~~-7~~-|---7--7-|
E|-----------7---------|-----7---------|-----7---------|-7------|
04:41
G|-------------------|----------------|---------------|----------s-|
D|-9~~-9-9---9~~-9~~-|-9-9----9~~-9~~-|-9-9---9~~-9~~-|---9-9---9\-|
A|---------9---------|------9---------|-----9---------|-9-----9----|
E|-------------------|----------------|---------------|------------|

G|-------------------|---------------|---------------|---------|
D|-6~~-6-6---6~~-6~~-|-6-6---6~~-6~~-|-6-6---6~~-6~~-|---6---6-|
A|---------6---------|-----6---------|-----6---------|-6---6---|
E|-------------------|---------------|---------------|---------|
04:55
G|-------------------|----------------|---------------|----------|
D|-------------------|----------------|---------------|----------|
A|-9~~-9-9---9~~-9~~-|-9-9----9~~-9~~-|-9-9---9~~-9~~-|---9-9--s-|
E|---------9---------|------9---------|-----9---------|-9-----9\-|

G|-------------------|---------------|---------------|--------|
D|-------------------|---------------|---------------|--------|
A|-7~~-7-7---7~~-7~~-|-7-7---7~~-7~~-|-7-7---7~~-7~~-|---7--7-|
E|---------7---------|-----7---------|-----7---------|-7------|
05:09
G|-------------------|----------------|---------------|-----s-|
D|-9~~-9-9---9~~-9~~-|-9-9----9~~-9~~-|-9-9---9~~-9~~-|-9--9\-|
A|---------9---------|------9---------|-----9---------|-------|
E|-------------------|----------------|---------------|-------|

G|-------------------|---------------|---------------|------|
D|-6~~-6-6---6~~-6~~-|-6-6---6~~-6~~-|-6-6---6~~-6~~-|-6--6-|
A|---------6---------|-----6---------|-----6---------|------|
E|-------------------|---------------|---------------|------|
05:23
G|-------------------|----------------|---------------|----------|
D|-------------------|----------------|---------------|----------|
A|-9~~-9-9---9~~-9~~-|-9-9----9~~-9~~-|-9-9---9~~-9~~-|---9-9--s-|
E|---------9---------|------9---------|-----9---------|-9-----9\-|

G|-------------------|---------------|---------------|----------------|
D|-------------------|---------------|---------------|--s-------------|
A|-7~~-7-7---7~~-7~~-|-7-7---7~~-7~~-|-7-7---7~~-7~~-|-9\11-9---------|
E|---------7---------|-----7---------|-----7---------|--------11-9-11-|

--------------------------
05:37

BRIDGE
*******
G|---------------------------------|---------------------------------|
D|---------------------------------|---------------------------------|
A|-9-9---9-9-9---9-9-9---9-9-9---9-|-7-7---7-7-7---7-7-7---7-7-7---7-|
E|---------------------------------|---------------------------------|

G|---------------------------------|---------------------------------|
D|---------------------------------|---------------------------------|
A|-6-6---6-6-6---6-6-6---6-6-6---6-|-7-7---7-7-7---7-7-7---7-7-7---7-|
E|---------------------------------|---------------------------------|

G|---------------------------------|-----------------------------|
D|---------------------------------|-----------------------------|
A|-6-6---6-6-6---6-6-6---6-6-6---6-|-----------------------------|
E|---------------------------------|-9-9---9-9-9---9-9-9---9-9-9-|

--------------------------
05:58
HARMONICA
**********
G|-------------------|----------------|---------------|--------s-|
D|-9~~-9-9---9~~-9~~-|-9-9----9~~-9~~-|-9-9---9~~-9~~-|---9---9\-|
A|---------9---------|------9---------|-----9---------|-9---9----|
E|-------------------|----------------|---------------|----------|

G|-------------------|---------------|---------------|---------|
D|-6~~-6-6---6~~-6~~-|-6-6---6~~-6~~-|-6-6---6~~-6~~-|---6~~-6-|
A|---------6---------|-----6---------|-----6---------|-6-------|
E|-------------------|---------------|---------------|---------|

G|-------------------|----------------|---------------|----------|
D|-------------------|----------------|---------------|----------|
A|-9~~-9-9---9~~-9~~-|-9-9----9~~-9~~-|-9-9---9~~-9~~-|---9-9--s-|
E|---------9---------|------9---------|-----9---------|-9-----9\-|

G|-------------------|---------------|---------------|--------|
D|-------------------|---------------|---------------|--------|
A|-7~~-7-7---7~~-7~~-|-7-7---7~~-7~~-|-7-7---7~~-7~~-|---7--7-|
E|---------7---------|-----7---------|-----7---------|-7------|

06:26 ............Just Repeat this until it Ends..............
G|-------------------|----------------|---------------|---------------|
D|-9~~-9-9---9~~-9~~-|-9-9----9~~-9~~-|-9-9---9~~-9~~-|-9-9---9~~-9~~-|
A|---------9---------|------9---------|-----9---------|-----9---------|
E|-------------------|----------------|---------------|---------------|


ENJOY.............

Almost there ...

Sign in to get your own page with links to favourite songs and more. You are just one click away...

Login with Facebook Login with Google