Log in

One click and you are in

Login with Facebook Login with Google

Why sign up and log in

Guitar Tabs Explorer
Wallows bass tabs for What you like

Bass tabs

Tuning: Standard (E A D G)

Key: G

Difficulty: Novice
Verse 1:

From 00:00 To 00:38 Stacatto
G|--------------------------------------------------------------|
D|--------------------------------------------------------------|x4
A|---------------------------------2-2-2-2-2-2-2-2-2-2-2-2-3-3-3|
E|-3-3-3-3-3-3-3-3-0-0-0-0-0-0-0-0------------------------------|
  . . . . . . . . . . . . . . . . . . . . . . . . . . . . . . .


Chorus 1:

G|------------|--------------|------------|--------------|
D|------------|--------------|------------|--------------|
A|-3-3-2-0-2--|-3-3-2-0-2----|-3-3-2-0-2--|-3-3-2-0-2----|
E|-----------3|-----------3-0|-----------3|-----------3-0|


Verse 2:
From 00:51 To 01:32
G|--------------------------------------------------------------|
D|--------------------------------------------------------------|x4
A|---------------------------------2-2-2-2-2-2-2-2-2-2-2-2-3-3-3|
E|-3-3-3-3-3-3-3-3-0-0-0-0-0-0-0-0------------------------------|
  . . . . . . . . . . . . . . . . . . . . . . . . . . . . . .


Chorus 2:

G|------------|--------------|------------|--------------|
D|------------|--------------|------------|--------------|
A|-3-3-2-0-2--|-3-3-2-0-2----|-3-3-2-0-2--|-3-3-2-0-2----|
E|-----------3|-----------3-0|-----------3|-----------3-0|


Bridge:

G|--------------|--------------|----------------|
D|--------------|--------------|----------------|x4
A|--------------|--------------|----------------|
E|-3-3-3-8-8-7-7|-3-3-3-8-8-7-7|-0-0-3/5-5-5/7-7|


Bridge 2:

G|----|------|--------------------------------|--------------------------|
D|----|------|--------------------------------|--------------------------|
A|-3--|-3----|-3-3-3-3-3-3-3-3----------------|-3-3-3-3-3-3-3-3----------|
E|---3|---3-0|-----------------3-3-3-3-3-3-3-3|-----------------3-3-3-3-3|


Chorus 3:

G|------------|--------------|
D|------------|--------------|x4
A|-3-3-2-0-2--|-3-3-2-0-2----|
E|-----------3|-----------3-0|

******************************
| / Slide Up
| . Staccato
******************************

Almost there ...

Sign in to get your own page with links to favourite songs and more. You are just one click away...

Login with Facebook Login with Google