Log in

One click and you are in

Login with Facebook Login with Google

Why sign up and log in

Guitar Tabs Explorer
Wallows bass tabs for Underneath the streetlights in the winter outside your house

Underneath The Streetlights In The Winter Outside Your House bass tab by Wallows

Wallows bass tabs for Underneath the streetlights in the winter outside your house

Bass tabs

Tuning: Standard (E A D G)


Verse 1:

G|------------------|---------------|-------------------------------|
D|------------------|---------------|-------------------------------|
A|-11--11-11--11-11-|-11--11-11--11-|-11--10-10--8-8--6--8-8--10-10-|x4
E|------------------|---------------|-------------------------------|
Chorus 1:

G|-------------|-------------|-------------|-------------|-------------|
D|-------------|-------------|-------------|-------------|-------------|
A|-------------|-------------|-4--4-4--4-4-|-4--4-4--4-4-|-6--6-6--6-6-|x4
E|-4--4-4--4-4-|-4--4-4--4-4-|-------------|-------------|-------------|


Verse 2:

G|------------------|---------------|-------------------------------|
D|------------------|---------------|-------------------------------|
A|-11--11-11--11-11-|-11--11-11--11-|-11--10-10--8-8--6--8-8--10-10-|x4
E|------------------|---------------|-------------------------------|


Chorus 2:

G|-------------|-------------|-------------|-------------|-------------|
D|-------------|-------------|-------------|-------------|-------------|
A|-------------|-------------|-4--4-4--4-4-|-4--4-4--4-4-|-6--6-6--6-6-|x4
E|-4--4-4--4-4-|-4--4-4--4-4-|-------------|-------------|-------------|

G|-------------------------|
D|-------------------------|
A|-------------------------|x4
E|-4-4-4-4--6--8-8--8--6-4-|

Almost there ...

Sign in to get your own page with links to favourite songs and more. You are just one click away...

Login with Facebook Login with Google