Log in

One click and you are in

Login with Facebook Login with Google

Why sign up and log in

Guitar Tabs Explorer
Wallows chords for Uncomfortable ukulele

Guitar chords with lyrics

Tuning: G C E A (G C E A)


Intro:

A|-2-0-0--0-------0--2--5-4--7-9-7-5--2-0-2-|-2-0-0--0-2------------0------------|
E|----------3-2-3---------------------------|--------------0-2-0--2------0-2-0---|
C|------------------------------------------|------------2------------2--------2-|
G|------------------------------------------|------------------------------------|
  G  D Bm D   G  D Bm  D     G  D Bm D    G  D Bm  D

Verse 1:

G   D   Bm   D
 Driving away, I wish I'd stayed
G D      Bm   D
 Another night, hasn't changed
G    D   Bm   D
 And now I see, it's you not me
G    D      Bm    D      G
 Who needs the time, you can't find anymore


Instrumental:

A|----------0---2---|
E|-0-----0----3---2-|
C|---2--------------|
G|------------------|


Chorus:

G     D     Bm       D
 I never wanted love, but now it's come undone
G      D        Bm  D
 I'm waiting on the time, you see I care
G       D     G        D
 But now it's fading fast, thought it was gone at last
G     D        Bm     D
 I'm not uncomfortable but I feel so uncomfortable



Instrumental:

A|-5--5-4--4-2-0--0-------0---------2-5-7-5-|
E|------------------3-2-2-----3-2-----------|
C|--------------------------2-----2---------|
G|------------------------------------------|
  G    D   Bm  D  G  D  Bm  D


Verse 2:

G   D   Bm   D
 The pieces fit perspective hits
G   D   Bm  D
 You realize everything is the same
G      D     Bm      D
 You say the same lines, all done on my time
G      D  Bm    D  G
 As it goes on, I will be gone


Bridge:

G          D
 When the memories bend
Bm           D
 I'll see you at the end
   G       D
And if they never fade
   Bm      D
I won't be far away


Instrumental:

A|-2-----2------2------2------|-0-----0------0------0------|
E|---3------3------3------3---|---2------2------2------2---|
C|-----2------2------2------2-|-----2------2------2------2-|
G|----------------------------|----------------------------|
  G              D

A|-2-----2------2------2------|-0-----0------0------0------|
E|---3------3------3------3---|---2------2------2------2---|
C|-----2------2------2------2-|-----2------2------2------2-|
G|----------------------------|----------------------------|
  G      F#   A    D


Outro:

A|-2-0-0--0-------0--2--0-5--9--8-5-|-2-0-0--0-2------------0------------|
E|----------3-2-3-------------------|--------------0-2-0--2------0-2-0---|
C|----------------------------------|------------2------------2--------2-|
G|----------------------------------|------------------------------------|
  G  D Bm D   G  D Bm D   G  D Bm D    G  D Bm  D

Almost there ...

Sign in to get your own page with links to favourite songs and more. You are just one click away...

Login with Facebook Login with Google