Log in

One click and you are in

Login with Facebook Login with Google

Why sign up and log in

Guitar Tabs Explorer
Wallows bass tabs for Pictures of girls

Bass tabs

Tuning: Standard (E A D G)

Difficulty: Intermediate


Intro: (x4)

G|----------------|---------------|-----------------------|------------------|
D|----------------|---------------|-----------------------|------------------|
A|----------------|---------------|11-11-11-11-11-11-11-11|9-9-9-9-9-9-9-9---|
E|-9-9-9-9-9-9-9-9|6-6-6-6-6-6-6-6|-----------------------|------------------|

Verse: (x4)

G|-----------------|------------------|--------------------|-----------------|
D|-----------------|------------------|--------------------|-----------------|
A|-----------------|------------------|11~-----------------|9~---------------|
E|-9~--------------|6~----------------|--------------------|-----------------|

Musical Interlude: (x2)

G|----------------|---------------|-----------------------|------------------|
D|----------------|---------------|-----------------------|------------------|
A|----------------|---------------|11-11-11-11-11-11-11-11|9-9-9-9-9-9-9-9---|
E|-9-9-9-9-9-9-9-9|6-6-6-6-6-6-6-6|-----------------------|------------------|


Verse: (x4)

G|-----------------|------------------|--------------------|-----------------|
D|-----------------|------------------|--------------------|-----------------|
A|-----------------|------------------|11~-----------------|9~---------------|
E|-9~--------------|6~----------------|--------------------|-----------------|


Bridge Part One: (x2)

G|--------------------------------|------------------------------------------|
D|-----------------6-6-6-6-6-6-6-6|4-4-4-4-4-4-4-4-4~------------------------|
A|-1-1-1-1-1-1-1-1----------------|------------------------------------------|
E|--------------------------------|------------------------------------------|

Musical Interlude: (x2)

G|----------------|---------------|-----------------------|------------------|
D|----------------|---------------|-----------------------|------------------|
A|----------------|---------------|11-11-11-11-11-11-11-11|9-9-9-9-9-9-9-9---|
E|-9-9-9-9-9-9-9-9|6-6-6-6-6-6-6-6|-----------------------|------------------|


Bridge Part Two:

G|---------6-|8---10~|----------6-|8---10~-|-----------6-|8---10~-|---------6|
D|\6---6--8--|-------|\6---6--8---|--------|\4---4--8----|--------|\4---4--8-|
A|-----------|-------|------------|--------|-------------|--------|----------|
E|-----------|-------|------------|--------|-------------|--------|----------|

G|--10--8~---|---------------------------------------------------------------|
D|-----------|---------------------------------------------------------------|
A|-----------|---------------------------------------------------------------|
E|-----------|---------------------------------------------------------------|

(x2 -- Only the bottom half of the bridge)

G|---------6-|8---10~-|----------6-|8---10~-|----------6-|8---10~-|---------6|
D|-6---6--8--|--------|-6---6--8---|--------|-4---4--8---|--------|-4---4--8-|
A|-----------|--------|------------|--------|------------|--------|----------|
E|-----------|--------|------------|--------|------------|--------|----------|

G|--10--8~---|---------------------------------------------------------------|
D|-----------|---------------------------------------------------------------|
A|-----------|---------------------------------------------------------------|
E|-----------|---------------------------------------------------------------|

Guitar Solo -- No Bass:

Musical Interlude: (x5 -- Crescendo the first time)

G|----------------|---------------|-----------------------|------------------|
D|----------------|---------------|-----------------------|------------------|
A|----------------|---------------|11-11-11-11-11-11-11-11|9-9-9-9-9-9-9-9---|
E|-9-9-9-9-9-9-9-9|6-6-6-6-6-6-6-6|-----------------------|------------------|


Outro:

G|---------6-|8---10~-|----------6-|8---10~-|----------6-|8---10~-|---------6|
D|-6---6--8--|--------|-6---6--8---|--------|-6---6--8---|--------|-6---6--8-|
A|-----------|--------|------------|--------|------------|--------|----------|
E|-----------|--------|------------|--------|------------|--------|----------|

G|--10--8~---|---------------------------------------------------------------|
D|-----------|---------------------------------------------------------------|
A|-----------|---------------------------------------------------------------|
E|-----------|---------------------------------------------------------------|


| \  Slide down
| ~  Let it ring

Almost there ...

Sign in to get your own page with links to favourite songs and more. You are just one click away...

Login with Facebook Login with Google