Log in

One click and you are in

Login with Facebook Login with Google

Why sign up and log in

Guitar Tabs Explorer
Wallows bass tabs for Nobody gets me like you

Bass tabs

Tuning: Standard (E A D G)


Verse 1:

G|----------------------------|----------------------------|
D|------------4-2-4-2-4-------|------------4-2-4-2-4-------|
A|-4-2-4-2-4------------/4--2-|-4-2-4-2-4-------------/4-2-|
E|----------------------------|----------------------------|
G|-----------------------|-----------------------|
D|-------6---------------|-------6---------------|
A|-7---7---9-7-5---5---5-|-7---7---9-7-5---5-----|
E|-----------------------|---------------------0-|


Pre-chorus 1:

G|----------------------------|----------------------------|
D|------------4-2-4-2-4-------|------------4-2-4-2-4-------|
A|-4-2-4-2-4------------/4--2-|-4-2-4-2-4-------------/4-2-|
E|----------------------------|----------------------------|

G|-----------------------|---------------------|
D|-------6---------------|-------6-------------|
A|-7---7---9-7-5---5---5-|-7---7---9-7-5-5-5-5-|
E|-----------------------|---------------------|

G|------|------|------|------|
D|------|------|------|------|
A|------|------|------|------|
E|-5--5-|-5--5-|-5--5-|-5--5-|


Chorus 1:

G|-----------------------------|-----------------------------|
D|---------------------7-7-7-7-|---------------------7-7-7-7-|
A|------/12--12-12-12--5-5-5-5-|------/12--12-12-12--5-5-5-5-|
E|-5--5------------------------|-5--5------------------------|

G|---------------------------|---------------------------|
D|-------------------7-7-7-7-|-------------------7-7-7-7-|
A|------/9--9-9-9-9--5-5-5-5-|------/9--9-9-9-9--5-5-5-5-|
E|-5--5----------------------|-5--5----------------------|

G|-------------------------------|
D|-------------------------------|
A|-4-5-4-2--4-2--5-5-5-5-5-5-5-5-|
E|-------------------------------|

Verse 2:

G|----------------------------|----------------------------|
D|------------4-2-4-2-4-------|------------4-2-4-2-4-------|
A|-4-2-4-2-4------------/4--2-|-4-2-4-2-4-------------/4-2-|
E|----------------------------|----------------------------|

G|----------------------------|----------------------------|
D|------------4-2-4-2-4-------|------------4-2-4-2-4-------|
A|-4-2-4-2-4------------/4--2-|-4-2-4-2-4-------------/4-2-|
E|----------------------------|----------------------------|

G|-----------------|
D|-------------4---|
A|-----5-----------|
E|-5-------5-------|


Pre-Chorus 2:

G|-----------------------|-----------------------|
D|-------6---------------|-------6---------------|
A|-7---7---9-7-5---5---5-|-7---7---9-7-5---5---5-|
E|-----------------------|-----------------------|


Chorus 2:

G|-----------------------------|-----------------------------|
D|---------------------7-7-7-7-|---------------------7-7-7-7-|
A|------/12--12-12-12--5-5-5-5-|------/12--12-12-12--5-5-5-5-|
E|-5--5------------------------|-5--5------------------------|

G|---------------------------|---------------------------|
D|-------------------7-7-7-7-|-------------------7-7-7-7-|
A|------/9--9-9-9-9--5-5-5-5-|------/9--9-9-9-9--5-5-5-5-|
E|-5--5----------------------|-5--5----------------------|

G|-------------------------------|
D|-------------------------------|
A|-4-5-4-2--4-2--5-5-5-5-5-5-5-5-|
E|-------------------------------|


Bridge: No bass


Chorus 3:

G|-----------------------------|-----------------------------|
D|---------------------7-7-7-7-|---------------------7-7-7-7-|
A|------/12--12-12-12--5-5-5-5-|------/12--12-12-12--5-5-5-5-|
E|-5--5------------------------|-5--5------------------------|

G|---------------------------|---------------------------|
D|-------------------7-7-7-7-|-------------------7-7-7-7-|
A|------/9--9-9-9-9--5-5-5-5-|------/9--9-9-9-9--5-5-5-5-|
E|-5--5----------------------|-5--5----------------------|

G|-------------------------------|-------------------------------|-------------------------------|
D|-------------------------------|-------------------------------|-------------------------------|
A|-4-5-4-2--4-2--5-5-5-5-5-5-5-5-|-4-5-4-2--4-2--5-5-5-5-5-5-5-5-|-4-5-4-2--4-2--5-5-5-5-5-5-5-5-|
E|-------------------------------|-------------------------------|-------------------------------|


************************************

| / Slide up

************************************

Almost there ...

Sign in to get your own page with links to favourite songs and more. You are just one click away...

Login with Facebook Login with Google