Log in

One click and you are in

Login with Facebook Login with Google

Why sign up and log in

Guitar Tabs Explorer
Wallows bass tabs for Dig what you dug

Bass tabs

Tuning: Standard (E A D G)


Intro:

G|---------------------------------------------|
D|-------------------8-8-8---------------------|
A|-------------------------8-8-8---6-6-6-6-6-6-|
E|-4-4-4-4-4-4-4-4-----------------------------|
Verse 1:

G|-------------------------|----------------/8------|------------------------|-----------------/8------|
D|-6-6----5-------5-6-8-10-|-6-6--5-6-5----5---10-8-|-6-6--5-6-5----5-/8-6-5-|-6-6----5----5-6----10-8-|
A|------6---6---6----------|-------------6----------|-------------6----------|------6---6--------------|
E|-------------------------|------------------------|------------------------|-------------------------|


Pre-Chorus 1:

G|-------------------------------------|-------------------------------------|
D|-8-8-10-10---------------------------|-8-8-10-10---------------------------|
A|-----------8-8-10-10-----------------|-----------8-8-10-10-6-6-6-6-6-6-6-6-|
E|---------------------4-4-4-4-4-4-4-4-|-------------------------------------|

G|-------------------------------------|-------------------------------------|
D|-8-8-10-10---------------------------|-8-8-10-10---------------------------|
A|-----------8-8-10-10-----------------|-----------8-8-10-10-6-6-6-6-6-6-6-6-|
E|---------------------4-4-4-4-4-4-4-4-|-------------------------------------|


Chorus 1:

G|-------------------------------------|-------------------------------------|
D|-8-8-10-10---------------------------|-8-8-10-10---------------------------|
A|-----------8-8-10-10-----------------|-----------8-8-10-10-6-6-6-6-6-6-6-6-|
E|---------------------4-4-4-4-4-4-4-4-|-------------------------------------|

G|-------------------------------------|-------------------------------------|
D|-8-8-10-10---------------------------|-8-8-10-10---------------------------|
A|-----------8-8-10-10-----------------|-----------8-8-10-10-6-6-6-6-6-6-6-6-|
E|---------------------4-4-4-4-4-4-4-4-|-------------------------------------|

Verse 2:

G|-------------------------|----------------/8------|-------------------------|-----------------/8------|
D|-6-6----5-------5-6-8-10-|-6-6--5-6-5----5---10-8-|-6-6----5-------5-6-8-10-|-6-6----5----5-6----10-8-|
A|------6---6---6----------|-------------6----------|------6---6---6----------|------6---6--------------|
E|-------------------------|------------------------|-------------------------|-------------------------|


Pre-Chorus 2:

G|-------------------------------------------------------------------------------------------------|
D|-------------------------------------------------------------------------------------------------|
A|-6-6-6-6-6-6-6-6-3-3-3-3-3-3-3-3-----------------------------------------------------------------|
E|---------------------------------3-3-3-3-3-3-3-3-4-4-4-4-4-4-4-4-3-3-3-3-3-3-3-3-4-4-4-4-4-4-4-4-|


Chorus 2:


G|-------------------------------------|-------------------------------------|
D|-8-8-10-10---------------------------|-8-8-10-10---------------------------|
A|-----------8-8-10-10-----------------|-----------8-8-10-10-6-6-6-6-6-6-6-6-|
E|---------------------4-4-4-4-4-4-4-4-|-------------------------------------|

G|-------------------------------------|-------------------------------------|
D|-8-8-10-10---------------------------|-8-8-10-10---------------------------|
A|-----------8-8-10-10-----------------|-----------8-8-10-10-6-6-6-6-6-6-6-6-|
E|---------------------4-4-4-4-4-4-4-4-|-------------------------------------|


Bridge:

G|---------------------------------------------------------------------------|
D|---------8-10--------------------------------------8-10------------8-10----|
A|-6------------10-6-------6-6-6-6-6-6-6-6-6-6-6-6-6------10-6-(x24)------10-|
E|---------------------------------------------------------------------------|


Chorus 3:

G|--------------------------------------------------|-------------------------------------|
D|-----------------8-8-10-10------------------------|-8-8-10-10---------------------------|
A|---------------------------8-8-10-6-6-6-6-6-6-6-6-|-----------8-8-10-10-----------------|
E|-4-4-4-4-4-4-4-4----------------------------------|---------------------4-4-4-4-4-4-4-4-|

G|----------------------------------|-------------------------------------|
D|-8-8-10-10------------------------|-8-8-10-10---------------------------|
A|-----------8-8-10-6-6-6-6-6-6-6-6-|-----------8-8-10-10-----------------|
E|----------------------------------|---------------------4-4-4-4-4-4-4-4-|

G|----------------------------------|
D|-8-8-10-10------------------------|
A|-----------8-8-10-6-6-6-6-6-6-6-6-|
E|----------------------------------|

Almost there ...

Sign in to get your own page with links to favourite songs and more. You are just one click away...

Login with Facebook Login with Google