Search tabs and chords

Search for song, artist or band

Log in

One click and you are in

Login with Facebook Login with Google

Why sign up and log in

Guitar Tabs Explorer
Kingston Wall guitar tabs for Shine on me

Guitar tabs with lyrics

Kingston wall: Shine on me TAB

subscribed by Konkari

I found out that there aren't any guitar tabs for this song, so
i decided to make this. it isn't accurate, but it guides you to right direction.
1.     2.    3.    4.

|-9--|---4--|--2--|--0--|
|-9--|---4--|--2--|--0--| At the second part the strumming changes, couldn't get it yet.
|-9--|---4--|--2--|--0--|
|-11-|---6--|--4--|--2--|
|-11-|---6--|--4--|--2--|
|-9--|---4--|--2--|--0--|


Strumming pattern:

| 1 | 2 | 3 4 | 1 |


In the intro, Walli uses his 4th finger for the melody while strumming at the same time.
It goes somewhat like this:


|-12-11-9-11---|-7-6-4---|------|-----|-9--|
|-----------12-|------7-4|--5p4-|-3p0-|-9--|
|--------------|---------|------|-----|-9--| X many as needed
|--------------|---------|------|-----|-11-|
|--------------|---------|------|-----|-11-|
|--------------|---------|------|-----|-9--|

The solo parts go from pentatonic scale, so it's quite simple to find out, or make
nearby
by yourself.

It may be inaccurate, but it's just to give some guidance,listen & find it out yourself,
not rely on tabs.

hope this'll help you out :)

Almost there ...

Sign in to get your own page with links to favourite songs and more. You are just one click away...

Login with Facebook Login with Google