Search tabs and chords

Search for song, artist or band

Log in

One click and you are in

Login with Facebook Login with Google

Why sign up and log in

Guitar Tabs Explorer
Kingston Wall bass tabs for Could it be so

Bass tabs

Could It Be So? - Kingston Wall
-------------------------------------------------------------------------------

Tabbed By : StüldHåjt
e-mail: aarnehyvonen@gmail.com

Tuning: Eb

G|---------------------------------------------------------------------------|
D|---------------------------------------------------------------------------|
A|---4--------------4--------------------------------------------------------|
E|---------------------------------------------------------------------------|

G|-----------------------------------------------6---------------------------|
D|---------------4-7-4--4----------------------6-----------------------------|
A|---5-5-5-5---7------7--7-5------4------------------------------------------|
E|---------------------------------------------------------------------------|

G|---------------------------------------------------------------------------|
D|---------------4-7-4--4----------------------------------------------------|
A|---5-5-5-5---7------7--7-5------4----------4-------------------------------|
E|-----------------------------------------4---------------------------------|

Alternate lick:

G|-----------------7----------------------------------6-----------------------|
D|-------------4-7---7-4-----------------------or---6-------------------------|
A|--5-5-5-5-7------------7-5------4--------4----------------------------------|
E|---------------------------------------4------------------------------------|


"Could it be so, that..."

G|---------------------------------------------------------------------------|
D|---------------------------------------------------------------------------|
A|------------------4--4--4-2-------------------55555555555555555--4---------|
E|---3---0---------------------5----3----0-----------------------------------|

G|---------------------------------------------------------------------------|
D|---------------------------------------------------------------------------|
A|-44-22--4-444-22--44-22-4-444-22---77--55--7-777-55--77-55-7-777-55--------|  x6
E|---------------------------------------------------------------------------|


G|---------------------------------------------------------------------------|
D|---------------------------------------------------------------------------|
A|-4-let ring----77-55-7-777-55-77-55-7-77755----4-let ring---7-let ring-----|
E|---------------------------------------------------------------------------|

G|---------------------------------------------------------------------------|
D|---------------------------------------------------------------------------|
A|-44-22--4-444-22--44-22-4-444-22---77--55--7-777-55--77-55-7-777-55--------|  x2
E|---------------------------------------------------------------------------|

G|---------------------------------------------------------------------------|
D|----7--------7-------------------------------------------------------------|
A|-5----5-7-55---5--7--5---44-22-4-444-22--44-22-4-444-22--------------------|  x2
E|---------------------------------------------------------------------------|

G|---------------------------------------------------------------------------|
D|---------------4-7-4--4----------------------------------------------------|
A|---5-5-5-5---7------7--7-5----44-22-4-444-22--44-22-4-444-22---------------|  x4
E|---------------------------------------------------------------------------|

Verse again. Use the alternate lick when you want to:

G|-----------------------------------------------6---------------------------|
D|---------------4-7-4--4----------------------6-----------------------------|
A|---5-5-5-5---7------7--7-5------4------------------------------------------|
E|---------------------------------------------------------------------------|

G|---------------------------------------------------------------------------|
D|---------------4-7-4--4----------------------------------------------------|
A|---5-5-5-5---7------7--7-5------4----------4-------------------------------|
E|-----------------------------------------4---------------------------------|

"Could it be so, that..."

G|---------------------------------------------------------------------------|
D|---------------------------------------------------------------------------|
A|------------------4--4--4-2-------------------55555555555555555--4---------|
E|---3---0---------------------5----3----0-----------------------------------|

G|---------------------------------------------------------------------------|
D|---------------------------------------------------------------------------|
A|-4---------4---------4---------4-------------------------------------------|
E|---------------------------------------------------------------------------|

"Could it be so that..." play this till the end.

G|---------------------------------------------------------------------------|
D|---------------4-7-4--4----------------------------------------------------|
A|---5-5-5-5---7------7--7-5----44-22-4-444-22--44-22-4-444-22---------------|
E|---------------------------------------------------------------------------|




| /  slide up
| \  slide down
| h  hammer-on
| p  pull-off
| ~  vibrato
| +  harmonic
| x  Mute note

Almost there ...

Sign in to get your own page with links to favourite songs and more. You are just one click away...

Login with Facebook Login with Google