Log in

One click and you are in

Login with Facebook Login with Google

Why sign up and log in

Guitar Tabs Explorer
Alan Walker guitar tabs for The spectre

Intro

Tuning: Standard (E A D G B E)

Difficulty: Novice

e|------------------------------------------------------------|
B|-------5-------------------------9--------------7-----------|
G|----6-------------6-----------------9--------------8--------| x4
D|-6-------------7-----7--------9--------------9--------------|
A|------------------------------------------------------------|
E|------------------------------------------------------------|
e|------9-12-11-9----9--9-12-9----9--9--12-9--------------------|
B|----9-----------12-----------10------------10--9--9-7---------|
G|------------------------------------------------------9-------|
D|-11-----------------------------------------------------------|
A|--------------------------------------------------------------|
E|--------------------------------------------------------------|


e|--9---------------------------------------------------------|
B|-----9-7----7-7-7--9----------------------------------------|
G|---------9-----------8--------------------------------------| x4
D|------------------------------------------------------------|
A|------------------------------------------------------------|
E|------------------------------------------------------------|


e|---------12-12--12-11-9----9-9-12-9---------------------------|
B|-------9----------------12----------10-10-10-10--9-9-9--7-----|
G|-11-11----------------------------------------------------9-9-|
D|--------------------------------------------------------------|
A|--------------------------------------------------------------|
E|--------------------------------------------------------------|


e|------------------------------------------------------------|
B|-12-10-9---7-7-7--9-----------------------------------------|
G|---------9----------8-8-8-8---------------------------------| x4
D|------------------------------------------------------------|
A|------------------------------------------------------------|
E|------------------------------------------------------------|

Other versions of The Spectre

The spectreChords

Almost there ...

Sign in to get your own page with links to favourite songs and more. You are just one click away...

Login with Facebook Login with Google