Search tabs and chords

Search for song, artist or band

Log in

One click and you are in

Login with Facebook Login with Google

Why sign up and log in

Guitar Tabs Explorer
Alan Walker guitar tabs for Sing me to sleep

Guitar tabs with lyrics

Tuning: Standard (E chord diagramEE A chord diagramAA D chord diagramDD G chord diagramGG B chord diagramBB E chord diagramEE)

Difficulty: Novice

Wait a second, let me catch my breath        Remind me how it feels to hear your voice        Your
e|-3--3--0--0--2--2--------|-0-----------------0--|-3--3--0--0--2--2--------|-------------------0--|
B|-------------------3--3--|----------------------|-------------------3--3--|-1--------------------|
G|-------------------------|----------------------|-------------------------|----------------------|
D|-------------------------|----------------------|-------------------------|----------------------|
A|-------------------------|----------------------|-------------------------|----------------------|
E|-------------------------|----------------------|-------------------------|----------------------|

  lips are movin', I can't hear a thing             Livin' life as if we had a choice
e|-3--3--0--0--2--2--------|-0--------------------|-3--3--0--0--2--2--------|----------------------|
B|-------------------3--3--|----------------------|-------------------3--3--|-1--------------------|
G|-------------------------|----------------------|-------------------------|----------------------|
D|-------------------------|----------------------|-------------------------|----------------------|
A|-------------------------|----------------------|-------------------------|----------------------|
E|-------------------------|----------------------|-------------------------|----------------------|

   A chord diagramAA-ny-where, a- ny time   I would do   anything for  you- ou-ou-ou-ou           A chord diagramAA- nything for you
e|-7--0--0-----7--0--0-----|-7--0--0-----7--0--0--10--|-8---7-5---3-0-----------|-8---7-5---3-0-----------|
B|-------------------------|--------------------------|-------------------------|-------------------------|
G|-------------------------|--------------------------|-------------------------|-------------------------|
D|-------------------------|--------------------------|-------------------------|-------------------------|
A|-------------------------|--------------------------|-------------------------|-------------------------|
E|-------------------------|--------------------------|-------------------------|-------------------------|

   Yesterday,  gone away     Melodies  stuck inside your he-e-e - e-ead      A chord diagramAA   song in every breath
e|-7--0--0-----7--0--0-----|-7--0--0-----7--0--0--10--|-8---7-5---3-0--------0--|-8---7-5---3-0-----------|
B|-------------------------|--------------------------|-------------------------|-------------------------|
G|-------------------------|--------------------------|-------------------------|-------------------------|
D|-------------------------|--------------------------|-------------------------|-------------------------|
A|-------------------------|--------------------------|-------------------------|-------------------------|
E|-------------------------|--------------------------|-------------------------|-------------------------|

   Sing        me      to sleep       now         Sing          me         to sleep              Oh, just
e|-8----------------------7|(7)-------------------8--|------------------------7|(7)--------------10---7--|
B|-------------7-----------|----------3/5------------|----------7--------------|-------------------------|
G|----------------------7--|-------------------------|----------------------7--|-------------------------|
D|-------------------------|-------------------------|-------------------------|-------------------------|
A|-------------------------|-------------------------|-------------------------|-------------------------|
E|-------------------------|-------------------------|-------------------------|-------------------------|

   Sing        me      to sleep       now         Sing          me         to sleep
e|-8----------------------7|(7)-------------------8--|-------------------------|-------------------------|
B|-------------7-----------|----------3/5------------|----------7----------8--8|(8)----------------------|
G|----------------------7--|-------------------------|-------------------------|-------------------------|
D|-------------------------|-------------------------|-------------------------|-------------------------|
A|-------------------------|-------------------------|-------------------------|-------------------------|
E|-------------------------|-------------------------|-------------------------|-------------------------|

  (synth)
e|-3--0--3--5-----7-----7--10--15--14--10--7--20--19--15--17-----------|
B|-------------3-------------------------------------------------------|
G|---------------------------------------------------------------------|
D|---------------------------------------------------------------------|
A|---------------------------------------------------------------------|
E|---------------------------------------------------------------------|

e|-3--0--3--5--10--7-----7--10--15--14--10--7--17--19--14--15----------|
B|---------------------------------------------------------------------|
G|---------------------------------------------------------------------|
D|---------------------------------------------------------------------|
A|---------------------------------------------------------------------|
E|---------------------------------------------------------------------|

e|-3--0--3--5-----7-----7--10--15--14--10--7--20--19--15--17-----------|
B|-------------3-------------------------------------------------------|
G|---------------------------------------------------------------------|
D|---------------------------------------------------------------------|
A|---------------------------------------------------------------------|
E|---------------------------------------------------------------------|

e|-3--0--3--5--10--7-----7--10--15--14--10--7--17--19--14--15----------|
B|---------------------------------------------------------------------|
G|---------------------------------------------------------------------|
D|---------------------------------------------------------------------|
A|---------------------------------------------------------------------|
E|---------------------------------------------------------------------|

And from here start from the beginning =)


*********************************************

| (n)  Hold note over bar line
|  /   Slide up to imitate vocal phrasing

*********************************************

Other versions of Sing Me To Sleep

Sing me to sleepChords

Almost there ...

Sign in to get your own page with links to favourite songs and more. You are just one click away...

Login with Facebook Login with Google