Log in

One click and you are in

Login with Facebook Login with Google

Why sign up and log in

Guitar Tabs Explorer
Alan Walker chords for Lily ukulele

Guitar chords

Tuning: G C E A (G C E A)


Verse 1:

A|-4---4---4--9-|---0-|-----0----7-|-------|-------4-|----0-|---|-4----0---|-4-----4---4--9-|
E|--------------|-----|-4-4--------|---5---|-2-0-----|------|-4-|--------2-|----------------|
C|--------------|-----|------------|-------|---------|------|---|----------|----------------|
G|---4---4------|-7---|-------4----|-6---4-|-----2---|-4----|---|----4-----|----4----4------|
A|------------|-----0----7-|-------0---|----0---|---5--9-|-0----|-------0---|
E|--------7-5-|-4-4--------|-----7---7-|--------|--------|------|-----7-----|
C|------------|------------|-----------|-6------|--------|----8-|-6-------6-|
G|-7-7-6------|-------4----|-6-6-------|------6-|-4------|------|---6-------|


Pre-Chorus:

A|-0------|----0-----|-----0----0-|-4-4-4-----0----|---0-----|----0-----|-----0----0-|-4-4-4------|
E|------0-|-(0)--2-0-|-(0)--------|----------------|-2---2-0-|-(0)--2-0-|-(0)--------|------------|
E|---6----|----------|------------|----------------|---------|----------|------------|------------|
G|--------|----------|-------1----|--------4-----4-|---------|----------|-------1----|--------4-4-|


Chorus:

A|-4----4----4-9|----------|-----0-----7|--------0---|-----------|---------------|------|---|
E|--------------|-------7-5|-4-4--------|-----7-----7|-----0-----|-7----7-----7-5|-4-5-4|-2-|
C|--------------|----------|------------|------------|-6-6----6--|---------------|------|---|
G|---4----4-----|-7-7-6----|--------4---|-6-6--------|----------6|----6----6-----|------|---|

A|-4-4-9-9|----------------|-----7-7|-----------0---|----------|--------------|------|---|
E|--------|-10-10-10-9-7---|-7-7----|--------7-----7|-----0----|-7----7----7-5|-4-5-4|-2-|
C|--------|---------------9|--------|---------------|-6-6---6--|--------------|------|---|
G|--------|----------------|--------|-6-6-6---------|---------6|----6----6----|------|---|

Interlude:

A|-4-4-4-4-4|-5-5-5-5-5|----------|-4-4-4-4-4|-0-0-0-0-0|-2-2-2-2-4-----0|---0--|---|
E|----------|----------|----------|----------|----------|----------------|-4---4|-2-|
C|----------|----------|----------|----------|----------|----------------|------|---|
G|----------|----------|-4-4-4-4-4|----------|----------|------------4---|------|---|

Verse 2:

A|-4---4---4--9-|---0|-----0----7-|-------|-------4-|----0-|---|--------|
E|--------------|----|-4-4--------|---5---|-2-0-----|------|-4-|-2-2-2-2|
C|--------------|----|------------|-------|---------|------|---|--------|
G|---4---4------|-7--|-------4----|-6---4-|-----2---|-4----|---|--------|


Pre chorus:

A|--------|----0-----|-----0----0-|-4-4-4-----0----|---0-----|----0-----|-----0----0-|-4-4-4------|
E|----2--0|-(0)--2-0-|-(0)--------|----------------|-2---2-0-|-(0)--2-0-|-(0)--------|------------|
E|--------|----------|------------|----------------|---------|----------|------------|------------|
G|-2------|----------|-------1----|--------4-----4-|---------|----------|-------1----|--------4-4-|


Chorus:

A|-4----4----4-9|----------|-----0-----7|--------0---|-----------|---------------|------|---|
E|--------------|-------7-5|-4-4--------|-----7-----7|-----0-----|-7----7-----7-5|-4-5-4|-2-|
C|--------------|----------|------------|------------|-6-6----6--|---------------|------|---|
G|---4----4-----|-7-7-6----|--------4---|-6-6--------|----------6|----6----6-----|------|---|

A|-4-4-9-9|----------------|-----7-7|-----------0---|----------|--------------|------|---|
E|--------|-10-10-10-9-7---|-7-7----|--------7-----7|-----0----|-7----7----7-5|-4-5-4|-2-|
C|--------|---------------9|--------|---------------|-6-6---6--|--------------|------|---|
G|--------|----------------|--------|-6-6-6---------|---------6|----6----6----|------|---|

Interlude:

A|-4-4-4-4-4|-5-5-5-5-5|----------|-4-4-4-4-4|-0-0-0-0-0|-2-2-2-2-4-----0|---0--|---|
E|----------|----------|----------|----------|----------|----------------|-4---4|-2-|
C|----------|----------|----------|----------|----------|----------------|------|---|
G|----------|----------|-4-4-4-4-4|----------|----------|------------4---|------|---|


Bridge:

A|-2----0--|-----0------|----4|-(4)-7------|------------|----------|------|---|
E|---------|-----------2|-0---|-----------7|-5-----4-5-4|-(4)-5-4-2|-0---0|-2-|
C|---------|------------|-----|------------|----6-------|----------|---1--|---|
G|---1----1|-(1)----1---|-----|--------6---|------------|----------|------|---|

A|-4-4-9-9|---------------|-----7-7|---------0--|---------4|---4----4----0|---0--|---|
E|--------|-10-10-10-9-7--|-7-7----|-------7---4|-2-2-0-2--|--------------|-4---4|-2-|
C|--------|--------------9|--------|------------|----------|--------------|------|---|
G|--------|---------------|--------|-6-6-6------|----------|-4---4----4---|------|---|


Outro:

A|-4----4----4-9|----------|-----0-----7|--------0---|-----------|---------------|------|---|
E|--------------|-------7-5|-4-4--------|-----7-----7|-----0-----|-7----7-----7-5|-4-5-4|-2-|
C|--------------|----------|------------|------------|-6-6----6--|---------------|------|---|
G|---4----4-----|-7-7-6----|--------4---|-6-6--------|----------6|----6----6-----|------|---|

A|-------|----0-----|-----0----|----0-----0|-(0)-4-4-4-----0----|---0-----|----0-----|-----0----0-|
E|---2--0|-(0)--2-0-|-(0)---2-0|-(0)-------|--------------------|-2---2-0-|-(0)--2-0-|-(0)--------|
c|-------|----------|----------|-----------|--------------------|---------|----------|------------|
G|-2-----|----------|----------|-------1---|------------4-----4-|---------|----------|-------1----|

A|(0)-4-4-4----0--|---0-----|----|-4-----4----0|---0--|--|
E|----------------|-2---2-0-|-(0)|-------------|-4---4|-2|
c|----------------|---------|----|-------------|------|--|
G|----------4----4|---------|----|----4-----4--|------|--|


************************************

| (n) Ghost note

************************************

Almost there ...

Sign in to get your own page with links to favourite songs and more. You are just one click away...

Login with Facebook Login with Google