Log in

One click and you are in

Login with Facebook Login with Google

Why sign up and log in

Guitar Tabs Explorer
Alan Walker guitar tabs for Heading home

Guitar tabs with lyrics

Tuning: Standard (E A D G B E)


Intro:

e|----------|---------|-----------------|---------|---------|-----------------|
B|----------|---------|-----------------|---------|---------|-----------------|
G|---3---3--|---5---5-|---7---7---7---7-|---8---8-|---7---7-|---2---2---2---2-|
D|----------|---------|-----------------|---------|---------|-----------------|
A|----------|---------|-----------------|-6---6---|-5---5---|-----------------|
E|-3---3----|-5---5---|-6---6---6---6---|---------|---------|-1---1---1---1---|

Verse 1:

I was so insatiable

'Til the lights came on and the stories got old

e|----------|---------|-----------------|---------|---------|-----------------|
B|----------|---------|-----------------|---------|---------|-----------------|
G|---3---3--|---5---5-|---7---7---7---7-|---8---8-|---7---7-|---2---2---2---2-|
D|----------|---------|-----------------|---------|---------|-----------------|
A|----------|---------|-----------------|-6---6---|-5---5---|-----------------|
E|-3---3----|-5---5---|-6---6---6---6---|---------|---------|-1---1---1---1---|

Now there's no one here, I know

And the city outside's not the same anymore

e|----------|---------|-----------------|---------|---------|---------|
B|----------|---------|-----------------|---------|---------|---------|
G|---3---3--|---5---5-|---7---7---7---7-|---8---8-|---7---7-|---2---2-|
D|----------|---------|-----------------|---------|---------|---------|
A|----------|---------|-----------------|-6---6---|-5---5---|---------|
E|-3---3----|-5---5---|-6---6---6---6---|---------|---------|-1---1---|


Pre-Chorus 1:

And I, I remember when we were young

We'd write our names in the sand

e|---------|---------|---------|-----------------|---------|---------|
B|---------|---------|---------|-----------------|---------|---------|
G|---3---3-|---8---8-|---2---2-|---3---3---3---3-|---8---8-|---2---2-|
D|---------|---------|---------|-----------------|---------|---------|
A|---------|-6---6---|---------|-----------------|-6---6---|---------|
E|-3---3---|---------|-1---1---|-3---3---3---3---|---------|-1---1---|

So carelessly

Then the rain came and yours was gone

And now mine it stands alone

e|-----------------|---------|---------|-----------------|---------|---------|-----------------|
B|-----------------|---------|---------|-----------------|---------|---------|-----------------|
G|---3---3---3---3-|---8---8-|---2---2-|---3---3---3---3-|---8---8-|---2---2-|---3---3---3---3-|
D|-----------------|---------|---------|-----------------|---------|---------|-----------------|
A|-----------------|-6---6---|---------|-----------------|-6---6---|---------|-----------------|
E|-3---3---3---3---|---------|-1---1---|-3---3---3---3---|---------|-1---1---|-3---3---3---3---|


Chorus:
A chord diagramG minorGm     A chord diagramFF        A chord diagramBb majorBb                A chord diagramEb MajorEb
Nobody sees me, now I'm a one man show
     A chord diagramFF
I'll do this on my own
A chord diagramG minorGm         A chord diagramFF        A chord diagramBb majorBb                A chord diagramEb MajorEb
We knew it all then now this is all I know

Guess I'm heading home now


Post-Chorus:
A chord diagramG minorGm                A chord diagramFF
Ooh-ooh, ooh-ooh (Yeah)
A chord diagramBb majorBb
Ooh-ooh, ooh-ooh
A chord diagramEb MajorEb
Ooh-ooh, ooh-ooh
          A chord diagramFF
Guess I'm heading home now
A chord diagramG minorGm              A chord diagramFF
Ooh-ooh, ooh-ooh
      A chord diagramBb majorBb       A chord diagramEb MajorEb
Ooh-ooh, ooh-ooh
          A chord diagramFF
Guess I'm heading home now


Verse 2:

When the music always played

With the sound of our lives and the sweetest escape

e|----------|---------|-----------------|---------|---------|-----------------|
B|----------|---------|-----------------|---------|---------|-----------------|
G|---3---3--|---5---5-|---7---7---7---7-|---8---8-|---7---7-|---2---2---2---2-|
D|----------|---------|-----------------|---------|---------|-----------------|
A|----------|---------|-----------------|-6---6---|-5---5---|-----------------|
E|-3---3----|-5---5---|-6---6---6---6---|---------|---------|-1---1---1---1---|

And the neighbors would complain

We would turn it up louder, who cares anyway?

e|----------|---------|-----------------|---------|---------|---------|
B|----------|---------|-----------------|---------|---------|---------|
G|---3---3--|---5---5-|---7---7---7---7-|---8---8-|---7---7-|---2---2-|
D|----------|---------|-----------------|---------|---------|---------|
A|----------|---------|-----------------|-6---6---|-5---5---|---------|
E|-3---3----|-5---5---|-6---6---6---6---|---------|---------|-1---1---|


Pre-Chorus 2:

'Cause we, we remembered that we were young

Our lives, were grains in the sand

That we, made up castles and kingdoms of

Now the waves have torn them down


e|---------|---------|---------|-----------------|---------|---------|
B|---------|---------|---------|-----------------|---------|---------|
G|---3---3-|---8---8-|---2---2-|---3---3---3---3-|---8---8-|---2---2-|
D|---------|---------|---------|-----------------|---------|---------|
A|---------|-6---6---|---------|-----------------|-6---6---|---------|
E|-3---3---|---------|-1---1---|-3---3---3---3---|---------|-1---1---|

e|-----------------|---------|---------|-----------------|---------|---------|-----------------|
B|-----------------|---------|---------|-----------------|---------|---------|-----------------|
G|---3---3---3---3-|---8---8-|---2---2-|---3---3---3---3-|---8---8-|---2---2-|---3---3---3---3-|
D|-----------------|---------|---------|-----------------|---------|---------|-----------------|
A|-----------------|-6---6---|---------|-----------------|-6---6---|---------|-----------------|
E|-3---3---3---3---|---------|-1---1---|-3---3---3---3---|---------|-1---1---|-3---3---3---3---|


Chorus:
A chord diagramG minorGm     A chord diagramFF        A chord diagramBb majorBb
Nobody sees me, now I'm a one man show
A chord diagramG minorGm              A chord diagramFF
Ooh-ooh, ooh-ooh (Yeah)
A chord diagramBb majorBb
Ooh-ooh, ooh-ooh
A chord diagramEb MajorEb
Ooh-ooh, ooh-ooh
          A chord diagramFF
Guess I'm heading home now
A chord diagramG minorGm       A chord diagramFF
Ooh-ooh, ooh-ooh
      A chord diagramBb majorBb
Ooh-ooh, ooh-ooh
       A chord diagramEb MajorEb
Ooh-ooh, ooh-ooh
          A chord diagramFF
Guess I'm heading home now


Bridge:
A chord diagramG minorGm     A chord diagramBb majorBb   A chord diagramEb MajorEb
You’ll find me
A chord diagramG minorGm   A chord diagramBb majorBb A chord diagramFF
I’ll be here
A chord diagramG minorGm A chord diagramBb majorBb  A chord diagramEb MajorEb
I  can see
A chord diagramG minorGm A chord diagramBb majorBb  A chord diagramFF
I  can breathe, anymore

But how could we have stayed? You were high on love

e|---------|---------|-----------------|---------|---------|
B|---------|---------|-----------------|---------|---------|
G|---3---3-|---5---5-|---7---7---7---7-|---8---8-|---7---7-|
D|---------|---------|-----------------|---------|---------|
A|---------|---------|-----------------|-6---6---|-5---5---|
E|-3---3---|-5---5---|-6---6---6---6---|---------|---------|
      A chord diagramFF
I was drunk
             A chord diagramG minorGm        A chord diagramBb majorBb
Drunk on the pain (Ooh-ooh, ooh-ooh)
A chord diagramEb MajorEb            A chord diagramFF
Ooh (Ooh-ooh, ooh-ooh)


Chorus:
          A chord diagramG minorGm                                 A chord diagramFF        A chord diagramBb majorBb
Guess I'm heading, I'm heading, I'm heading (Ooh-ooh, ooh-ooh)
                      A chord diagramEb MajorEb
I'm heading home now (Ooh-ooh, ooh-ooh)

Hmm-hmm (Ooh-ooh, ooh-ooh)

Ooh (Ooh-ooh, ooh-ooh)
          A chord diagramFF
Guess I'm heading home now

Other versions of Heading Home

Heading homeChords

↓ Add and view comments below ↓

What do you think about this song and these tabs?

Add your comments, questions, rant or a thumbs up below.

Almost there ...

Sign in to get your own page with links to favourite songs and more. You are just one click away...

Login with Facebook Login with Google