Log in

One click and you are in

Login with Facebook Login with Google

Why sign up and log in

Guitar Tabs Explorer
Alan Walker guitar chords for Faded ukulele (Ver. 2)

Guitar chords

Tuning: G C E A (G C E A)

  Intro:
A|---------------1------6---6---6------------------------------------------|
E|--2---2---2------------------------------6---6---6---6-------------------|
C|-----------------------------------------------------------5---5---5---3-|
G|----------------------------------6--------------------------------------|

  Verse 1:
A|--------------------------1--------------1-----------------------------|
E|-2---2-----2-----2------------2---2------------2---2---2-----1------1--|
C|--------3-----3----------------------1---------------------------------|
G|---------------------1-------------------------------------------------|

A|-----------------------------------------1-----------4-----------------|
E|-1---1----2-----2---2-----2-----2------------2---2-----------2---2-----|
C|-------3---------------3-----3-----------------------------------------|
G|------------------------------------1-------------------3------------1-|

  Pre-Chorus:
A|-1---1---1---1-----------1----6---6---6--------------------------------|
E|-----------------2---2-------------------6---6---6-----6---6----6---6--|
C|-----------------------------------------------------------------------|
G|-----------------------------------------------------------------------|

A|-------------------------------------------------------------1---1---1-|
E|--------------6---6---6-----6-------------4--4-----4--2--2-------------|
C|-5---5---5----------------------6--6--6--------------------------------|
G|------------------------------------------------3----------------------|

A|---------------------------|
E|-2-2-2-2-2-2---1--1--1--1--|
C|---------------------------|
G|---------------------------|

  Chorus:
A|-1---1---1---1-----------------------4---4-------------4---4-----------|
E|------------------2------------------------------------------------4---|
C|----------------------3---1-------1----------------1-------------------|
G|---------------------------------------------3-----------------3-------|

A|----------------------------------2-----4------4-----4-----4-----------|
E|--------------------2---2----------------------------------------4-----|
C|-----------------------------3-----------------------------------------|
G|-3---3---3---3-----------------------------3------3-----3-----3------4-|

A|-----------------------9---8-------------------------------------------|
E|--------------2--------------------9------6---------7-----6---4--------|
C|-3-------------------------------------8-------------------------6---5-|
G|-----4----3--------3-----------8----------------6----------------------|

A|-------------------9---8---------------------------------------------------------|
E|-4------------6----------------9---------6-------7----6---4----------------4-----|
C|-----5---6--------------------------8------------------------6---5-----5-------5-|
G|---------------------------8-----------------6-----------------------------------|

  Verse 2:
A|---------------------1--------------1----------------------------------|
E|-------------2-----------2---2----------2--2--2--1----1--1-----2-------|
C|-6---6---3-----------------------1--------------------------3----------|
G|----------------1------------------------------------------------------|

A|-------------------------1------------4-------------------|
E|-2---2------2------2----------2---2------------2---2------|
C|---------3-----3------------------------------------------|
G|----------------------1------------------3------------1---|

  Pre-Chorus:
A|-1--1--1--1-----1--1--1--1--------4---4-------------4---4------|
E|------------------------------2-----------------2--------------|
C|---------------------------------------------------------------|
G|-----------------------------------------3-----------------3---|

A|------4---4---------------------4---4------------4---4---------|
E|-2------------4---2---2-----2----------------2---------------4-|
C|---------------------------------------------------------------|
G|----------------------------------------3----------------3-----|

Chorus:
A|-1---1---1---1-----------------------4---4-------------4---4-----------|
E|------------------2------------------------------------------------4---|
C|----------------------3---1-------1----------------1-------------------|
G|---------------------------------------------3-----------------3-------|

A|----------------------------------2-----4------4-----4-----4-----------|
E|--------------------2---2----------------------------------------4-----|
C|-----------------------------3-----------------------------------------|
G|-3---3---3---3-----------------------------3------3-----3-----3------4-|

A|-----------------------9---8-------------------------------------------|
E|--------------2--------------------9------6---------7-----6---4--------|
C|-3-------------------------------------8-------------------------6---5-|
G|-----4----3--------3-----------8----------------6----------------------|

A|-------------------9---8---------------------------------------------------------|
E|-4------------6----------------9---------6-------7----6---4----------------4-----|
C|-----5---6--------------------------8------------------------6---5-----5-------5-|
G|---------------------------8-----------------6-----------------------------------|

  Interlude:
A|------------------------------------------------------2--------------1-----1-|
E|-2-----2-----2-----2---------------------------------------------------------|
C|----3-----3-----3-----3---------3------3----------3------3-------1------1----|
G|--------------------------1---------1------3-----------------3---------------|

A|-----1------------------------------|
E|-------------------------------2----|
C|-1------1-----1-----1------1------1-|
G|-----------1-----1-----1------------|

  Outro:
A|--------------------6---6---6-------------------------|
E|--------------6---------------------6---6---6---6-----|
C|-6---6---6------------------------------------------5-|
G|---------------------------------6--------------------|

Other versions of Faded Ukulele

Faded ukuleleChords

↓ Add and view comments below ↓

What do you think about this song and these chords?

Add your comments, questions, rant or a thumbs up below.

Almost there ...

Sign in to get your own page with links to favourite songs and more. You are just one click away...

Login with Facebook Login with Google