Search tabs and chords

Search for song, artist or band

Log in

One click and you are in

Login with Facebook Login with Google

Why sign up and log in

Guitar Tabs Explorer
Alan Walker guitar tabs for Faded

Solo tabs

-------------------------------------------------------------------------------
                             Faded - Alan Walker
-------------------------------------------------------------------------------
Tabbed by: Wille Wetterstr?m
E chord diagramEE-mail: Wille101@live.se

Tuning:Standard
                                      FIRST VERSION
e|------------------------11-11-11-11-11-11-9-9-------------------------------------------------|
B|------------------11-11-----------------------11-11-11-11-11-11-11-11-------------------------|
G|11-11-11-11-11-11-----------------------------------------------------10-10-10-10-10-10-10-10-|
D|----------------------------------------------------------------------------------------------|
A|----------------------------------------------------------------------------------------------|
E|----------------------------------------------------------------------------------------------|
                                      SECOND VERSION
e|------------------14-14-13-13-11-11-11-9-9-9-----------------9--------------------------------------|
B|------------11-11----------------------------9-9-11-11-11-11---12-11-11-9-9-------------------------|
G|11-11-11-11-----------------------------------------------------------------10-10-10-10-13-13-10-10-|
D|----------------------------------------------------------------------------------------------------|
A|----------------------------------------------------------------------------------------------------|
E|----------------------------------------------------------------------------------------------------|

My Youtube:

Other versions of Faded

FadedChords
Faded (Ver. 2)Chords
Faded ukuleleChords
Faded (Ver. 2)Tabs
Faded (Ver. 3) - introTabs
Faded - introTabs

Almost there ...

Sign in to get your own page with links to favourite songs and more. You are just one click away...

Login with Facebook Login with Google