Search tabs and chords

Search for song, artist or band

Log in

One click and you are in

Login with Facebook Login with Google

Why sign up and log in

Guitar Tabs Explorer
Alan Walker guitar tabs for Faded

Intro

Tuning: Standard (E chord diagramEE A chord diagramAA D chord diagramDD G chord diagramGG B chord diagramBB E chord diagramEE)

Difficulty: Novice


Intro:

e|---------------------------------------------------------------------------|
B|-------------20--20--20--18--15--15--15--15--------------------------------|
G|-15--15--19----------------------------------14--14--14--------------------|
D|---------------------------------------------------------17----------------|
A|---------------------------------------------------------------------------|
E|---------------------------------------------------------------------------|


e|---------------------------------------------------------------------------|
B|-15-15----15----15-17-19-15-15----19---------------------------------------|
G|-------17----17----------------15------------------------------------------|
D|---------------------------------------------------------------------------|
A|---------------------------------------------------------------------------|
E|---------------------------------------------------------------------------|


e|---------------------------------------------------------------------------|
B|---------------------------------------------------------------------------|
G|-15-15-15-14--14-14----15--------------------------------------------------|
D|--------------------17-----------------------------------------------------|
A|---------------------------------------------------------------------------|
E|---------------------------------------------------------------------------|

Other versions of Faded

FadedChords
Faded (Ver. 2)Chords
Faded ukuleleChords
Faded (Ver. 2)Tabs
Faded (Ver. 3) - introTabs
Faded - introTabs
Faded - soloTabs
Faded arash versionTabs

Almost there ...

Sign in to get your own page with links to favourite songs and more. You are just one click away...

Login with Facebook Login with Google