Search tabs and chords

Search for song, artist or band

Log in

One click and you are in

Login with Facebook Login with Google

Why sign up and log in

Guitar Tabs Explorer
Alan Walker bass tabs for Faded

Bass tabs

Because of your EADG tuning you have to play the D# at the A-String. So this is actually it.

Verse: 1x
Start at 0:32
G|-8----4---------6-|
D|-8----4----4----6-| Play the chords soft
A|-6----2----4----4-|
E|-----------2------|

Pre-Chorus: 1x
   1 + 2 + 3 + 4 + 1 + 2 + 3 + 4 + 1 + 2 + 3 + 4 + 1 + 2 + 3 + 4 +
G|---------------------------------------------------------------------------|
D|---------------------------------------------------------------------------|
A|---6---6---6--666--2---2---2---2-------------------4---4-------------------|
E|-----------------------------------2---2---2--222--------------------------|

Chorus: 4x
   1 + 2 + 3 + 4 +  
G|-------------------|
D|-------------------|
A|-6-6-6-6-6-6-6-666-|
E|-------------------|

   1 + 2 + 3 + 4 +  
G|-----------------|
D|-----------------|
A|-2-2-2-2-2-2-2-2-|
E|-----------------|

   1 + 2 + 3 + 4 +  
G|-------------------|
D|-------------------|
A|-------------------|
E|-2-2-2-2-2-2-2-222-|

   1 + 2 + 3 + 4 +                     1 + 2 + 3 + 4 +  
G|-----------------|                G|-----------------| 
D|-----------------|                D|-----------------|
A|-4-4-4-4-4-4-4-4-|  and 2nd time  A|-4-4-4-4---------| 
E|-----------------|                E|-----------------|

Verse: 2x
Start at 0:32
G|-8----4---------6-|
D|-8----4----4----6-| Play the chords soft
A|-6----2----4----4-|
E|-----------2------|

Pre-Chorus: 3x
   1 + 2 + 3 + 4 + 1 + 2 + 3 + 4 + 1 + 2 + 3 + 4 + 1 + 2 + 3 + 4 +
G|---------------------------------------------------------------------------|
D|---------------------------------------------------------------------------|
A|-6-6-6-6-6-6--6662-2-2-2-2-2-2-2-----------------4-4-4-4-4-4-4-4-----------| Play them 2 times soft and 
E|---------------------------------2-2-2-2-2-2--222--------------------------| the 3rd time a bit harder.

Chorus: 4x
   1 + 2 + 3 + 4 +  
G|-------------------|
D|-------------------|
A|-6-6-6-6-6-6-6-666-|
E|-------------------|

   1 + 2 + 3 + 4 +  
G|-----------------|
D|-----------------|
A|-2-2-2-2-2-2-2-2-|
E|-----------------|

   1 + 2 + 3 + 4 +  
G|-------------------|
D|-------------------|
A|-------------------|
E|-2-2-2-2-2-2-2-222-|

   1 + 2 + 3 + 4 +                     1 + 2 + 3 + 4 +  
G|-----------------|                G|-----------------| 
D|-----------------|                D|-----------------|
A|-4-4-4-4-4-4-4-4-|  and 2nd time  A|-4-4-4-4---------| 
E|-----------------|                E|-----------------|

Outro:

Almost there ...

Sign in to get your own page with links to favourite songs and more. You are just one click away...

Login with Facebook Login with Google