Log in

One click and you are in

Login with Facebook Login with Google

Why sign up and log in

Guitar Tabs Explorer
Alan Walker guitar tabs for Faded arash version

Guitar tabs

INTRO
e|-------------0-7---7---7---5-2---2---2---------------|
B|-3---3---3---------0---0---0-3---3---3-2---2---2---0-|
G|-4---4---4-------0---0---0---2-2---2---2---2---2---2-|
D|---4---4---4---------------------------2-2---2---2---|
A|-2-------------------------------------0-------------|
E|--------------3--------------------------------------|

SOLO
e|-------2-7-7-7-5-2-2-2-2---------------2-7-7-7-5-2-2-2-2--------|
B|-3-3-3-------------------2-2-2-0-3-3-3-------------------2-2-2--|
G|----------------------------------------------------------------|
D|----------------------------------------------------------------|
A|----------------------------------------------------------------|
E|----------------------------------------------------------------|

Almost there ...

Sign in to get your own page with links to favourite songs and more. You are just one click away...

Login with Facebook Login with Google